0
SECTION
2
HEADER
  9
$EXTMIN
10
0
20
0
30
0
  9
$EXTMAX
10
4837.578
20
1310.586
30
0
  9
$LTSCALE
40
5.000
  9
$DIMSCALE
40
5.000
  9
$PDMODE
70
0
  9
$PDSIZE
40
40
0
ENDSEC
0
SECTION
2
TABLES
0
TABLE
2
LTYPE
70
9
0
LTYPE
5
1f4
2
CONTINUOUS
70
0
3
実線
72
65
73
0
40
0.0
0
LTYPE
5
1f5
2
DOT
70
0
3
--  --  --  --  --  --  --  --     
72
65
73
2
40
5.000
49
1.000
49
-4.000
0
LTYPE
5
1f6
2
DASHED
70
0
3
----    ----    ----    ----    
72
65
73
2
40
5.000
49
2.000
49
-3.000
0
LTYPE
5
1f7
2
DASHED2
70
0
3
------  ------  ------  ------ 
72
65
73
2
40
10.000
49
4.000
49
-6.000
0
LTYPE
5
1f8
2
CENTER
70
0
3
----- - ----- - ----- - ----- - 
72
65
73
4
40
9.000
49
6.000
49
-1.000
49
1.000
49
-1.000
0
LTYPE
5
1f9
2
CENTER2
70
0
3
----------  --  ----------  -- 
72
65
73
4
40
18.000
49
12.000
49
-2.000
49
2.000
49
-2.000
0
LTYPE
5
1fa
2
PHANTOM
70
0
3
--- - - --- - - --- - - --- - -
72
65
73
6
40
10.000
49
5.000
49
-1.000
49
1.000
49
-1.000
49
1.000
49
-1.000
0
LTYPE
5
1fb
2
PHANTOM2
70
0
3
--------  -  -  --------  -  -
72
65
73
6
40
16.000
49
6.000
49
-2.000
49
2.000
49
-2.000
49
2.000
49
-2.000
0
LTYPE
5
1fc
2
HIDDEN
70
0
3
-   -   -   -   -   -   -   -   
72
65
73
2
40
2.500
49
0.500
49
-2.000
0
ENDTAB
0
TABLE
2
STYLE
70
1
0
STYLE
5
1fd
100
AcDbSymbolTableRecord
100
AcDbTextStyleTableRecord
2
STANDARD
70
0
40
0.0
41
1.0
50
0.0
71
0
42
0.0
3
txt.shx
4
extfont.shx
0
STYLE
5
1fe
100
AcDbSymbolTableRecord
100
AcDbTextStyleTableRecord
2
TATEGAKI
70
4
40
0.0
41
1.0
50
0.0
71
0
42
0.0
3
txt.shx
4
extfont.shx
0
STYLE
5
1ff
100
AcDbSymbolTableRecord
100
AcDbTextStyleTableRecord
2
MT
70
0
40
0.0
41
1.0
50
0.0
71
0
42
0.0
3
MS Mincho
4

0
STYLE
5
200
100
AcDbSymbolTableRecord
100
AcDbTextStyleTableRecord
2
TMT
70
4
40
0.0
41
1.0
50
0.0
71
0
42
0.0
3
@MS Mincho
4

0
ENDTAB
0
TABLE
2
LAYER
5
f88
100
AcDbSymbolTable
70
10
0
LAYER
5
f89
100
AcDbSymbolTableRecord
100
AcDbLayerTableRecord
2
0
70
64
62
  7
  6
CONTINUOUS
0
LAYER
5
f8a
100
AcDbSymbolTableRecord
100
AcDbLayerTableRecord
2
0-0
70
64
62
  7
  6
CONTINUOUS
0
LAYER
5
f8b
100
AcDbSymbolTableRecord
100
AcDbLayerTableRecord
2
ADD_LINE
70
64
62
  -7
  6
CONTINUOUS
0
ENDTAB
0
ENDSEC
0
SECTION
2
ENTITIES
0
LINE
5
f8c
8
0-0
6
CONTINUOUS
62
  7
10
1173.728
20
502.703
30
0.0
11
1180.676
21
502.703
31
0.0
0
LINE
5
f8d
8
0-0
6
CONTINUOUS
62
  7
10
1180.676
20
502.703
30
0.0
11
1180.676
21
486.797
31
0.0
0
LINE
5
f8e
8
0-0
6
CONTINUOUS
62
  7
10
875.676
20
627.758
30
0.0
11
1180.676
21
627.758
31
0.0
0
LINE
5
f8f
8
0-0
6
CONTINUOUS
62
  7
10
875.676
20
555.755
30
0.0
11
875.676
21
627.758
31
0.0
0
LINE
5
f90
8
0-0
6
CONTINUOUS
62
  7
10
1180.676
20
555.755
30
0.0
11
1180.676
21
627.758
31
0.0
0
LINE
5
f91
8
0-0
6
CONTINUOUS
62
  7
10
875.676
20
591.756
30
0.0
11
1140.676
21
591.756
31
0.0
0
LINE
5
f92
8
0-0
6
CONTINUOUS
62
  7
10
875.676
20
555.755
30
0.0
11
875.676
21
591.756
31
0.0
0
LINE
5
f93
8
0-0
6
CONTINUOUS
62
  7
10
1140.676
20
555.755
30
0.0
11
1140.676
21
591.756
31
0.0
0
LINE
5
f94
8
0-0
6
CONTINUOUS
62
  7
10
773.938
20
529.989
30
0.0
11
773.938
21
439.989
31
0.0
0
LINE
5
f95
8
0-0
6
CONTINUOUS
62
  7
10
826.414
20
529.989
30
0.0
11
773.938
21
529.989
31
0.0
0
LINE
5
f96
8
0-0
6
CONTINUOUS
62
  7
10
826.414
20
439.989
30
0.0
11
773.938
21
439.989
31
0.0
0
LINE
5
f97
8
0-0
6
CONTINUOUS
62
  7
10
1173.729
20
502.703
30
0.0
11
1180.676
21
502.703
31
0.0
0
LINE
5
f98
8
0-0
6
CONTINUOUS
62
  7
10
1180.676
20
502.703
30
0.0
11
1180.676
21
486.797
31
0.0
0
LINE
5
f99
8
0-0
6
CONTINUOUS
62
  7
10
1180.676
20
502.703
30
0.0
11
1180.676
21
486.797
31
0.0
0
LINE
5
f9a
8
0-0
6
CONTINUOUS
62
  7
10
1180.676
20
502.703
30
0.0
11
1180.676
21
472.703
31
0.0
0
LINE
5
f9b
8
0-0
6
CONTINUOUS
62
  7
10
1172.699
20
495.703
30
0.0
11
1166.105
21
495.703
31
0.0
0
LINE
5
f9c
8
0-0
6
CONTINUOUS
62
  7
10
1172.699
20
495.703
30
0.0
11
1180.676
21
495.703
31
0.0
0
LINE
5
f9d
8
0-0
6
CONTINUOUS
62
  7
10
920.676
20
1093.762
30
0.0
11
920.676
21
1133.762
31
0.0
0
LINE
5
f9e
8
0-0
6
CONTINUOUS
62
  7
10
875.676
20
1093.762
30
0.0
11
920.676
21
1093.762
31
0.0
0
LINE
5
f9f
8
0-0
6
CONTINUOUS
62
  7
10
1444.230
20
1093.762
30
0.0
11
1450.230
21
1093.762
31
0.0
0
LINE
5
fa0
8
0-0
6
CONTINUOUS
62
  7
10
1450.230
20
1133.762
30
0.0
11
1450.230
21
1093.762
31
0.0
0
LINE
5
fa1
8
0-0
6
CONTINUOUS
62
  7
10
1155.676
20
843.762
30
0.0
11
1180.676
21
868.762
31
0.0
0
LINE
5
fa2
8
ADD_LINE
6
HIDDEN
62
  3
10
915.676
20
896.727
30
0.0
11
915.676
21
754.507
31
0.0
0
LINE
5
fa3
8
0-0
6
CONTINUOUS
62
  7
10
960.676
20
843.762
30
0.0
11
960.676
21
829.762
31
0.0
0
LINE
5
fa4
8
0-0
6
CONTINUOUS
62
  7
10
960.676
20
843.762
30
0.0
11
1180.676
21
843.762
31
0.0
0
LINE
5
fa5
8
0-0
6
CONTINUOUS
62
  7
10
1493.230
20
841.469
30
0.0
11
1441.368
21
850.614
31
0.0
0
LINE
5
fa6
8
0-0
6
CONTINUOUS
62
  7
10
1434.230
20
837.657
30
0.0
11
1522.863
21
822.028
31
0.0
0
LINE
5
fa7
8
0-0
6
CONTINUOUS
62
  7
10
1525.294
20
835.816
30
0.0
11
1522.863
21
822.028
31
0.0
0
LINE
5
fa8
8
0-0
6
CONTINUOUS
62
  7
10
1476.231
20
1133.762
30
0.0
11
1476.231
21
1125.762
31
0.0
0
LINE
5
fa9
8
0-0
6
CONTINUOUS
62
  7
10
1450.230
20
1125.762
30
0.0
11
1480.231
21
1125.762
31
0.0
0
LINE
5
faa
8
0-0
6
CONTINUOUS
62
  7
10
920.676
20
1133.762
30
0.0
11
1180.676
21
1133.762
31
0.0
0
LINE
5
fab
8
0-0
6
CONTINUOUS
62
  7
10
960.676
20
1125.762
30
0.0
11
960.676
21
1133.762
31
0.0
0
LINE
5
fac
8
0-0
6
CONTINUOUS
62
  7
10
960.676
20
1125.762
30
0.0
11
1172.676
21
1125.762
31
0.0
0
LINE
5
fad
8
0-0
6
CONTINUOUS
62
  7
10
875.676
20
843.762
30
0.0
11
875.676
21
1093.762
31
0.0
0
LINE
5
fae
8
0-0
6
CONTINUOUS
62
  7
10
1180.676
20
843.762
30
0.0
11
1180.676
21
1133.762
31
0.0
0
LINE
5
faf
8
0-0
6
CONTINUOUS
62
  7
10
1172.676
20
888.762
30
0.0
11
1172.676
21
1125.762
31
0.0
0
LINE
5
fb0
8
0-0
6
CONTINUOUS
62
  7
10
1172.676
20
888.762
30
0.0
11
1180.676
21
888.762
31
0.0
0
LINE
5
fb1
8
0-0
6
CONTINUOUS
62
  7
10
1480.231
20
843.762
30
0.0
11
1480.231
21
1125.762
31
0.0
0
LINE
5
fb2
8
0-0
6
CONTINUOUS
62
  7
10
1444.230
20
866.351
30
0.0
11
1444.230
21
1093.762
31
0.0
0
LINE
5
fb3
8
0-0
6
CONTINUOUS
62
  7
10
1493.230
20
841.469
30
0.0
11
1544.799
21
832.376
31
0.0
0
LINE
5
fb4
8
0-0
6
CONTINUOUS
62
  7
10
1547.230
20
846.164
30
0.0
11
1544.799
21
832.376
31
0.0
0
LINE
5
fb5
8
0-0
6
CONTINUOUS
62
  7
10
875.676
20
1308.086
30
0.0
11
1180.676
21
1308.086
31
0.0
0
LINE
5
fb6
8
0-0
6
CONTINUOUS
62
  7
10
875.676
20
1186.464
30
0.0
11
875.676
21
1308.086
31
0.0
0
LINE
5
fb7
8
0-0
6
CONTINUOUS
62
  7
10
1180.676
20
1186.464
30
0.0
11
1180.676
21
1308.086
31
0.0
0
LINE
5
fb8
8
0-0
6
CONTINUOUS
62
  7
10
1450.230
20
1133.762
30
0.0
11
1498.230
21
1133.762
31
0.0
0
LINE
5
fb9
8
0-0
6
CONTINUOUS
62
  7
10
1498.230
20
854.804
30
0.0
11
1498.230
21
1133.762
31
0.0
0
LINE
5
fba
8
0-0
6
CONTINUOUS
62
  7
10
1498.230
20
854.804
30
0.0
11
1547.230
21
846.164
31
0.0
0
LINE
5
fbb
8
0-0
6
CONTINUOUS
62
  7
10
1480.231
20
1308.086
30
0.0
11
1498.230
21
1308.086
31
0.0
0
LINE
5
fbc
8
0-0
6
CONTINUOUS
62
  7
10
1480.231
20
1186.464
30
0.0
11
1480.231
21
1308.086
31
0.0
0
LINE
5
fbd
8
0-0
6
CONTINUOUS
62
  7
10
1498.230
20
1186.464
30
0.0
11
1498.230
21
1308.086
31
0.0
0
LINE
5
fbe
8
ADD_LINE
6
HIDDEN
62
  3
10
1140.676
20
555.755
30
0.0
11
1140.676
21
475.857
31
0.0
0
LINE
5
fbf
8
ADD_LINE
6
HIDDEN
62
  3
10
889.159
20
502.703
30
0.0
11
857.390
21
502.703
31
0.0
0
LINE
5
fc0
8
ADD_LINE
6
HIDDEN
62
  3
10
875.676
20
527.857
30
0.0
11
875.676
21
478.973
31
0.0
0
LINE
5
fc1
8
0-0
6
CONTINUOUS
62
  7
10
675.312
20
1133.762
30
0.0
11
675.312
21
843.762
31
0.0
0
LINE
5
fc2
8
0-0
6
CONTINUOUS
62
  7
10
826.414
20
1133.762
30
0.0
11
675.312
21
1133.762
31
0.0
0
LINE
5
fc3
8
0-0
6
CONTINUOUS
62
  7
10
826.414
20
843.762
30
0.0
11
675.312
21
843.762
31
0.0
0
LINE
5
fc4
8
0-0
6
CONTINUOUS
62
  7
10
773.938
20
1133.762
30
0.0
11
773.938
21
1093.762
31
0.0
0
LINE
5
fc5
8
0-0
6
CONTINUOUS
62
  7
10
826.414
20
1133.762
30
0.0
11
773.938
21
1133.762
31
0.0
0
LINE
5
fc6
8
0-0
6
CONTINUOUS
62
  7
10
826.414
20
1093.762
30
0.0
11
773.938
21
1093.762
31
0.0
0
LINE
5
fc7
8
0-0
6
CONTINUOUS
62
  7
10
773.938
20
1093.762
30
0.0
11
773.938
21
843.762
31
0.0
0
LINE
5
fc8
8
0-0
6
CONTINUOUS
62
  7
10
826.414
20
843.762
30
0.0
11
773.938
21
843.762
31
0.0
0
LINE
5
fc9
8
0-0
6
CONTINUOUS
62
  7
10
875.676
20
1247.275
30
0.0
11
920.676
21
1247.275
31
0.0
0
LINE
5
fca
8
0-0
6
CONTINUOUS
62
  7
10
875.676
20
1186.464
30
0.0
11
875.676
21
1247.275
31
0.0
0
LINE
5
fcb
8
0-0
6
CONTINUOUS
62
  7
10
920.676
20
1186.464
30
0.0
11
920.676
21
1247.275
31
0.0
0
LINE
5
fcc
8
0-0
6
CONTINUOUS
62
  7
10
920.676
20
1247.275
30
0.0
11
1180.676
21
1247.275
31
0.0
0
LINE
5
fcd
8
0-0
6
CONTINUOUS
62
  7
10
1180.676
20
1186.464
30
0.0
11
1180.676
21
1247.275
31
0.0
0
LINE
5
fce
8
0-0
6
CONTINUOUS
62
  7
10
870.676
20
743.418
30
0.0
11
960.676
21
743.418
31
0.0
0
LINE
5
fcf
8
0-0
6
CONTINUOUS
62
  7
10
870.676
20
784.506
30
0.0
11
870.676
21
743.418
31
0.0
0
LINE
5
fd0
8
0-0
6
CONTINUOUS
62
  7
10
960.676
20
784.506
30
0.0
11
960.676
21
743.418
31
0.0
0
LINE
5
fd1
8
0-0
6
CONTINUOUS
62
  7
10
1284.030
20
1133.762
30
0.0
11
1284.030
21
843.762
31
0.0
0
LINE
5
fd2
8
0-0
6
CONTINUOUS
62
  7
10
1219.463
20
1133.762
30
0.0
11
1284.030
21
1133.762
31
0.0
0
LINE
5
fd3
8
0-0
6
CONTINUOUS
62
  7
10
1219.463
20
843.762
30
0.0
11
1284.030
21
843.762
31
0.0
0
LINE
5
fd4
8
0-0
6
CONTINUOUS
62
  7
10
1597.513
20
823.081
30
0.0
11
1599.944
21
836.869
31
0.0
0
LINE
5
fd5
8
0-0
6
CONTINUOUS
62
  7
10
1564.675
20
828.872
30
0.0
11
1597.513
21
823.081
31
0.0
0
LINE
5
fd6
8
0-0
6
CONTINUOUS
62
  7
10
1567.106
20
842.659
30
0.0
11
1599.944
21
836.869
31
0.0
0
LINE
5
fd7
8
ADD_LINE
6
HIDDEN
62
  3
10
1128.436
20
502.703
30
0.0
11
1161.745
21
502.703
31
0.0
0
CIRCLE
5
fd8
8
0-0
6
CONTINUOUS
62
  7
10
915.676
20
482.668
30
0.0
40
45.000
0
ARC
5
fd9
8
0-0
6
CONTINUOUS
62
  7
10
1166.924
20
502.923
30
0.0
40
6.808
50
318.432068
51
358.142212
0
ARC
5
fda
8
0-0
6
CONTINUOUS
62
  7
10
1063.328
20
728.307
30
0.0
40
254.299
50
245.643051
51
297.481079
0
ARC
5
fdb
8
0-0
6
CONTINUOUS
62
  7
10
1064.483
20
429.389
30
0.0
40
19.995
50
288.074829
51
305.673553
0
ARC
5
fdc
8
0-0
6
CONTINUOUS
62
  7
10
1050.676
20
474.323
30
0.0
40
67.000
50
250.377533
51
287.377014
0
CIRCLE
5
fdd
8
0-0
6
CONTINUOUS
62
  7
10
925.676
20
918.762
30
0.0
40
3.000
0
CIRCLE
5
fde
8
0-0
6
CONTINUOUS
62
  7
10
925.676
20
938.762
30
0.0
40
3.000
0
ARC
5
fdf
8
0-0
6
CONTINUOUS
62
  7
10
915.676
20
926.012
30
0.0
40
106.250
50
244.942429
51
295.057556
0
ARC
5
fe0
8
0-0
6
CONTINUOUS
62
  7
10
838.519
20
849.139
30
0.0
40
37.544
50
328.927185
51
351.765076
0
ARC
5
fe1
8
0-0
6
CONTINUOUS
62
  7
10
1495.260
20
924.630
30
0.0
40
106.250
50
234.942276
51
285.057709
0
ARC
5
fe2
8
0-0
6
CONTINUOUS
62
  7
10
220.160
20
-1280.814
30
0.0
40
1875.060
50
64.473526
51
67.260239
0
ARC
5
fe3
8
0-0
6
CONTINUOUS
62
  7
10
2356.334
20
-1712.338
30
0.0
40
2481.244
50
118.282410
51
121.060791
0
CIRCLE
5
fe4
8
0-0
6
CONTINUOUS
62
  7
10
997.676
20
1116.762
30
0.0
40
3.000
0
CIRCLE
5
fe5
8
0-0
6
CONTINUOUS
62
  7
10
1107.676
20
1116.762
30
0.0
40
3.000
0
ARC
5
fe6
8
0-0
6
CONTINUOUS
62
  7
10
1396.439
20
866.917
30
0.0
40
47.794
50
322.251129
51
359.321442
0
CIRCLE
5
fe7
8
ADD_LINE
6
HIDDEN
62
  3
10
875.676
20
502.703
30
0.0
40
3.000
0
CIRCLE
5
fe8
8
ADD_LINE
6
HIDDEN
62
  3
10
1140.676
20
502.703
30
0.0
40
3.000
0
TEXT
5
fe9
100
AcDbEntity
8
0-0
62
7
100
AcDbText
10
1018.801
20
630.258
30
0.0
40
9.750
41
0.800
50
0.000
1
305
100
AcDbText
0
TEXT
5
fea
100
AcDbEntity
8
0-0
62
7
100
AcDbText
10
998.800
20
594.256
30
0.0
40
9.750
41
0.800
50
0.000
1
265
100
AcDbText
0
TEXT
5
feb
100
AcDbEntity
8
0-0
62
7
100
AcDbText
10
771.438
20
478.739
30
0.0
40
9.750
41
0.800
50
90.000
1
90
100
AcDbText
0
TEXT
5
fec
100
AcDbEntity
8
0-0
62
7
100
AcDbText
10
1018.801
20
1310.586
30
0.0
40
9.750
41
0.800
50
0.000
1
305
100
AcDbText
0
TEXT
5
fed
100
AcDbEntity
8
0-0
62
7
100
AcDbText
10
1482.981
20
1310.586
30
0.0
40
9.750
41
0.800
50
0.000
1
18
100
AcDbText
0
TEXT
5
fee
100
AcDbEntity
8
0-0
62
7
100
AcDbText
10
672.812
20
979.387
30
0.0
40
9.750
41
0.800
50
90.000
1
290
100
AcDbText
0
TEXT
5
fef
100
AcDbEntity
8
0-0
62
7
100
AcDbText
10
771.438
20
1107.512
30
0.0
40
9.750
41
0.800
50
90.000
1
40
100
AcDbText
0
TEXT
5
ff0
100
AcDbEntity
8
0-0
62
7
100
AcDbText
10
771.438
20
959.387
30
0.0
40
9.750
41
0.800
50
90.000
1
250
100
AcDbText
0
TEXT
5
ff1
100
AcDbEntity
8
0-0
62
7
100
AcDbText
10
891.926
20
1249.775
30
0.0
40
9.750
41
0.800
50
0.001
1
45
100
AcDbText
0
TEXT
5
ff2
100
AcDbEntity
8
0-0
62
7
100
AcDbText
10
1041.301
20
1249.775
30
0.0
40
9.750
41
0.800
50
0.000
1
260
100
AcDbText
0
TEXT
5
ff3
100
AcDbEntity
8
0-0
62
7
100
AcDbText
10
909.426
20
745.918
30
0.0
40
9.750
41
0.800
50
0.000
1
90
100
AcDbText
0
TEXT
5
ff4
100
AcDbEntity
8
0-0
62
7
100
AcDbText
10
1281.530
20
979.387
30
0.0
40
9.750
41
0.800
50
90.000
1
290
100
AcDbText
0
TEXT
5
ff5
100
AcDbEntity
8
0-0
62
7
100
AcDbText
10
1595.181
20
824.254
30
0.0
40
9.750
41
0.800
50
80.000
1
14
100
AcDbText
0
POINT
5
ff6
8
0-0
62
  7
10
875.676
20
627.758
30
0.0
0
POINT
5
ff7
8
0-0
62
  7
10
1180.676
20
627.758
30
0.0
0
POINT
5
ff8
8
0-0
62
  7
10
875.676
20
591.756
30
0.0
0
POINT
5
ff9
8
0-0
62
  7
10
1140.676
20
591.756
30
0.0
0
POINT
5
ffa
8
0-0
62
  7
10
773.938
20
529.989
30
0.0
0
POINT
5
ffb
8
0-0
62
  7
10
773.938
20
439.989
30
0.0
0
POINT
5
ffc
8
0-0
62
  7
10
875.676
20
1308.086
30
0.0
0
POINT
5
ffd
8
0-0
62
  7
10
1180.676
20
1308.086
30
0.0
0
POINT
5
ffe
8
0-0
62
  7
10
1480.231
20
1308.086
30
0.0
0
POINT
5
fff
8
0-0
62
  7
10
1498.230
20
1308.086
30
0.0
0
POINT
5
1000
8
0-0
62
  7
10
675.312
20
1133.762
30
0.0
0
POINT
5
1001
8
0-0
62
  7
10
675.312
20
843.762
30
0.0
0
POINT
5
1002
8
0-0
62
  7
10
773.938
20
1133.762
30
0.0
0
POINT
5
1003
8
0-0
62
  7
10
773.938
20
1093.762
30
0.0
0
POINT
5
1004
8
0-0
62
  7
10
773.938
20
843.762
30
0.0
0
POINT
5
1005
8
0-0
62
  7
10
875.676
20
1247.275
30
0.0
0
POINT
5
1006
8
0-0
62
  7
10
920.676
20
1247.275
30
0.0
0
POINT
5
1007
8
0-0
62
  7
10
1180.676
20
1247.275
30
0.0
0
POINT
5
1008
8
0-0
62
  7
10
870.676
20
743.418
30
0.0
0
POINT
5
1009
8
0-0
62
  7
10
960.676
20
743.418
30
0.0
0
POINT
5
100a
8
0-0
62
  7
10
1284.030
20
1133.762
30
0.0
0
POINT
5
100b
8
0-0
62
  7
10
1284.030
20
843.762
30
0.0
0
POINT
5
100c
8
0-0
62
  7
10
1597.513
20
823.081
30
0.0
0
POINT
5
100d
8
0-0
62
  7
10
1599.944
20
836.869
30
0.0
0
ENDSEC
0
EOF
