0
SECTION
2
HEADER
  9
$EXTMIN
10
0
20
0
30
0
  9
$EXTMAX
10
1423.879
20
1226.413
30
0
  9
$LTSCALE
40
5.000
  9
$DIMSCALE
40
5.000
  9
$PDMODE
70
0
  9
$PDSIZE
40
40
0
ENDSEC
0
SECTION
2
TABLES
0
TABLE
2
LTYPE
70
9
0
LTYPE
5
1f4
2
CONTINUOUS
70
0
3
実線
72
65
73
0
40
0.0
0
LTYPE
5
1f5
2
DOT
70
0
3
--  --  --  --  --  --  --  --     
72
65
73
2
40
5.000
49
1.000
49
-4.000
0
LTYPE
5
1f6
2
DASHED
70
0
3
----    ----    ----    ----    
72
65
73
2
40
5.000
49
2.000
49
-3.000
0
LTYPE
5
1f7
2
DASHED2
70
0
3
------  ------  ------  ------ 
72
65
73
2
40
10.000
49
4.000
49
-6.000
0
LTYPE
5
1f8
2
CENTER
70
0
3
----- - ----- - ----- - ----- - 
72
65
73
4
40
9.000
49
6.000
49
-1.000
49
1.000
49
-1.000
0
LTYPE
5
1f9
2
CENTER2
70
0
3
----------  --  ----------  -- 
72
65
73
4
40
18.000
49
12.000
49
-2.000
49
2.000
49
-2.000
0
LTYPE
5
1fa
2
PHANTOM
70
0
3
--- - - --- - - --- - - --- - -
72
65
73
6
40
10.000
49
5.000
49
-1.000
49
1.000
49
-1.000
49
1.000
49
-1.000
0
LTYPE
5
1fb
2
PHANTOM2
70
0
3
--------  -  -  --------  -  -
72
65
73
6
40
16.000
49
6.000
49
-2.000
49
2.000
49
-2.000
49
2.000
49
-2.000
0
LTYPE
5
1fc
2
HIDDEN
70
0
3
-   -   -   -   -   -   -   -   
72
65
73
2
40
2.500
49
0.500
49
-2.000
0
ENDTAB
0
TABLE
2
STYLE
70
1
0
STYLE
5
1fd
100
AcDbSymbolTableRecord
100
AcDbTextStyleTableRecord
2
STANDARD
70
0
40
0.0
41
1.0
50
0.0
71
0
42
0.0
3
txt.shx
4
extfont.shx
0
STYLE
5
1fe
100
AcDbSymbolTableRecord
100
AcDbTextStyleTableRecord
2
TATEGAKI
70
4
40
0.0
41
1.0
50
0.0
71
0
42
0.0
3
txt.shx
4
extfont.shx
0
STYLE
5
1ff
100
AcDbSymbolTableRecord
100
AcDbTextStyleTableRecord
2
MT
70
0
40
0.0
41
1.0
50
0.0
71
0
42
0.0
3
MS Mincho
4

0
STYLE
5
200
100
AcDbSymbolTableRecord
100
AcDbTextStyleTableRecord
2
TMT
70
4
40
0.0
41
1.0
50
0.0
71
0
42
0.0
3
@MS Mincho
4

0
ENDTAB
0
TABLE
2
LAYER
5
11f3
100
AcDbSymbolTable
70
10
0
LAYER
5
11f4
100
AcDbSymbolTableRecord
100
AcDbLayerTableRecord
2
0
70
64
62
  7
  6
CONTINUOUS
0
LAYER
5
11f5
100
AcDbSymbolTableRecord
100
AcDbLayerTableRecord
2
0-0
70
64
62
  7
  6
CONTINUOUS
0
LAYER
5
11f6
100
AcDbSymbolTableRecord
100
AcDbLayerTableRecord
2
ADD_LINE
70
64
62
  -7
  6
CONTINUOUS
0
ENDTAB
0
ENDSEC
0
SECTION
2
ENTITIES
0
LINE
5
11f7
8
0-0
6
CONTINUOUS
62
  7
10
1138.473
20
1049.588
30
0.0
11
1138.473
21
744.588
31
0.0
0
LINE
5
11f8
8
0-0
6
CONTINUOUS
62
  7
10
838.473
20
744.588
30
0.0
11
1138.473
21
744.588
31
0.0
0
LINE
5
11f9
8
0-0
6
CONTINUOUS
62
  7
10
838.473
20
1009.588
30
0.0
11
838.473
21
744.588
31
0.0
0
LINE
5
11fa
8
0-0
6
CONTINUOUS
62
  7
10
838.473
20
1009.588
30
0.0
11
883.473
21
1009.588
31
0.0
0
LINE
5
11fb
8
0-0
6
CONTINUOUS
62
  7
10
883.473
20
1049.588
30
0.0
11
883.473
21
1009.588
31
0.0
0
LINE
5
11fc
8
0-0
6
CONTINUOUS
62
  7
10
883.473
20
1049.588
30
0.0
11
1138.473
21
1049.588
31
0.0
0
LINE
5
11fd
8
0-0
6
CONTINUOUS
62
  7
10
918.473
20
1049.588
30
0.0
11
918.473
21
1041.589
31
0.0
0
LINE
5
11fe
8
0-0
6
CONTINUOUS
62
  7
10
918.473
20
1041.589
30
0.0
11
1130.473
21
1041.589
31
0.0
0
LINE
5
11ff
8
0-0
6
CONTINUOUS
62
  7
10
1130.473
20
1041.589
30
0.0
11
1130.473
21
754.588
31
0.0
0
LINE
5
1200
8
0-0
6
CONTINUOUS
62
  7
10
1130.473
20
754.588
30
0.0
11
1138.473
21
754.588
31
0.0
0
LINE
5
1201
8
0-0
6
CONTINUOUS
62
  7
10
1423.879
20
1049.588
30
0.0
11
1423.879
21
1041.589
31
0.0
0
LINE
5
1202
8
0-0
6
CONTINUOUS
62
  7
10
1393.879
20
1049.588
30
0.0
11
1393.879
21
1041.589
31
0.0
0
LINE
5
1203
8
0-0
6
CONTINUOUS
62
  7
10
1415.879
20
1041.589
30
0.0
11
1423.879
21
1041.589
31
0.0
0
LINE
5
1204
8
0-0
6
CONTINUOUS
62
  7
10
1350.879
20
1009.588
30
0.0
11
1356.879
21
1009.588
31
0.0
0
LINE
5
1205
8
0-0
6
CONTINUOUS
62
  7
10
1356.879
20
1049.588
30
0.0
11
1356.879
21
1009.588
31
0.0
0
LINE
5
1206
8
0-0
6
CONTINUOUS
62
  7
10
1356.879
20
1049.588
30
0.0
11
1423.879
21
1049.588
31
0.0
0
LINE
5
1207
8
0-0
6
CONTINUOUS
62
  7
10
1356.879
20
1041.589
30
0.0
11
1399.879
21
1041.589
31
0.0
0
LINE
5
1208
8
0-0
6
CONTINUOUS
62
  7
10
866.831
20
402.686
30
0.0
11
838.473
21
386.561
31
0.0
0
LINE
5
1209
8
0-0
6
CONTINUOUS
62
  7
10
838.473
20
386.561
30
0.0
11
838.473
21
372.561
31
0.0
0
LINE
5
120a
8
0-0
6
CONTINUOUS
62
  7
10
838.473
20
380.561
30
0.0
11
838.473
21
366.561
31
0.0
0
LINE
5
120b
8
0-0
6
CONTINUOUS
62
  7
10
861.336
20
378.404
30
0.0
11
838.473
21
366.561
31
0.0
0
LINE
5
120c
8
ADD_LINE
6
HIDDEN
62
  3
10
1025.677
20
336.487
30
0.0
11
999.824
21
336.487
31
0.0
0
LINE
5
120d
8
ADD_LINE
6
HIDDEN
62
  3
10
1025.679
20
336.487
30
0.0
11
1051.137
21
336.487
31
0.0
0
LINE
5
120e
8
ADD_LINE
6
HIDDEN
62
  3
10
1025.677
20
336.487
30
0.0
11
1025.677
21
322.178
31
0.0
0
LINE
5
120f
8
0-0
6
CONTINUOUS
62
  7
10
838.473
20
513.651
30
0.0
11
1138.473
21
513.651
31
0.0
0
LINE
5
1210
8
0-0
6
CONTINUOUS
62
  7
10
838.473
20
441.453
30
0.0
11
838.473
21
513.651
31
0.0
0
LINE
5
1211
8
0-0
6
CONTINUOUS
62
  7
10
1138.473
20
441.453
30
0.0
11
1138.473
21
513.651
31
0.0
0
LINE
5
1212
8
0-0
6
CONTINUOUS
62
  7
10
838.473
20
474.672
30
0.0
11
1103.473
21
474.672
31
0.0
0
LINE
5
1213
8
0-0
6
CONTINUOUS
62
  7
10
838.473
20
441.453
30
0.0
11
838.473
21
474.672
31
0.0
0
LINE
5
1214
8
0-0
6
CONTINUOUS
62
  7
10
1103.473
20
441.453
30
0.0
11
1103.473
21
474.672
31
0.0
0
LINE
5
1215
8
0-0
6
CONTINUOUS
62
  7
10
1103.473
20
474.672
30
0.0
11
1138.473
21
474.672
31
0.0
0
LINE
5
1216
8
0-0
6
CONTINUOUS
62
  7
10
1138.473
20
441.453
30
0.0
11
1138.473
21
474.672
31
0.0
0
LINE
5
1217
8
ADD_LINE
6
HIDDEN
62
  3
10
1103.473
20
479.321
30
0.0
11
1103.473
21
474.672
31
0.0
0
LINE
5
1218
8
0-0
6
CONTINUOUS
62
  7
10
838.473
20
632.021
30
0.0
11
1138.473
21
632.021
31
0.0
0
LINE
5
1219
8
0-0
6
CONTINUOUS
62
  7
10
838.473
20
696.886
30
0.0
11
838.473
21
632.021
31
0.0
0
LINE
5
121a
8
0-0
6
CONTINUOUS
62
  7
10
1138.473
20
696.886
30
0.0
11
1138.473
21
632.021
31
0.0
0
LINE
5
121b
8
0-0
6
CONTINUOUS
62
  7
10
838.473
20
1223.913
30
0.0
11
1138.473
21
1223.913
31
0.0
0
LINE
5
121c
8
0-0
6
CONTINUOUS
62
  7
10
838.473
20
1094.183
30
0.0
11
838.473
21
1223.913
31
0.0
0
LINE
5
121d
8
0-0
6
CONTINUOUS
62
  7
10
1138.473
20
1094.183
30
0.0
11
1138.473
21
1223.913
31
0.0
0
LINE
5
121e
8
0-0
6
CONTINUOUS
62
  7
10
838.473
20
1171.210
30
0.0
11
883.473
21
1171.210
31
0.0
0
LINE
5
121f
8
0-0
6
CONTINUOUS
62
  7
10
838.473
20
1094.183
30
0.0
11
838.473
21
1171.210
31
0.0
0
LINE
5
1220
8
0-0
6
CONTINUOUS
62
  7
10
883.473
20
1094.183
30
0.0
11
883.473
21
1171.210
31
0.0
0
LINE
5
1221
8
0-0
6
CONTINUOUS
62
  7
10
883.473
20
1171.210
30
0.0
11
1138.473
21
1171.210
31
0.0
0
LINE
5
1222
8
0-0
6
CONTINUOUS
62
  7
10
1138.473
20
1094.183
30
0.0
11
1138.473
21
1171.210
31
0.0
0
LINE
5
1223
8
0-0
6
CONTINUOUS
62
  7
10
530.365
20
744.588
30
0.0
11
530.365
21
1049.588
31
0.0
0
LINE
5
1224
8
0-0
6
CONTINUOUS
62
  7
10
749.284
20
744.588
30
0.0
11
530.365
21
744.588
31
0.0
0
LINE
5
1225
8
0-0
6
CONTINUOUS
62
  7
10
749.284
20
1049.588
30
0.0
11
530.365
21
1049.588
31
0.0
0
LINE
5
1226
8
0-0
6
CONTINUOUS
62
  7
10
530.365
20
1049.588
30
0.0
11
530.365
21
744.588
31
0.0
0
LINE
5
1227
8
0-0
6
CONTINUOUS
62
  7
10
607.392
20
744.588
30
0.0
11
607.392
21
1009.588
31
0.0
0
LINE
5
1228
8
0-0
6
CONTINUOUS
62
  7
10
749.284
20
744.588
30
0.0
11
607.392
21
744.588
31
0.0
0
LINE
5
1229
8
0-0
6
CONTINUOUS
62
  7
10
749.284
20
1009.588
30
0.0
11
607.392
21
1009.588
31
0.0
0
LINE
5
122a
8
0-0
6
CONTINUOUS
62
  7
10
607.392
20
1009.588
30
0.0
11
607.392
21
1049.588
31
0.0
0
LINE
5
122b
8
0-0
6
CONTINUOUS
62
  7
10
749.284
20
1049.588
30
0.0
11
607.392
21
1049.588
31
0.0
0
LINE
5
122c
8
0-0
6
CONTINUOUS
62
  7
10
1399.879
20
744.588
30
0.0
11
1399.879
21
1041.589
31
0.0
0
LINE
5
122d
8
0-0
6
CONTINUOUS
62
  7
10
1399.879
20
744.588
30
0.0
11
1423.879
21
742.066
31
0.0
0
LINE
5
122e
8
0-0
6
CONTINUOUS
62
  7
10
1423.879
20
752.121
30
0.0
11
1423.879
21
742.066
31
0.0
0
LINE
5
122f
8
0-0
6
CONTINUOUS
62
  7
10
1415.879
20
761.216
30
0.0
11
1423.879
21
752.121
31
0.0
0
LINE
5
1230
8
0-0
6
CONTINUOUS
62
  7
10
1415.879
20
1041.589
30
0.0
11
1415.879
21
761.216
31
0.0
0
LINE
5
1231
8
0-0
6
CONTINUOUS
62
  7
10
1399.879
20
744.588
30
0.0
11
1350.879
21
749.739
31
0.0
0
LINE
5
1232
8
0-0
6
CONTINUOUS
62
  7
10
1350.879
20
749.739
30
0.0
11
1350.879
21
1009.588
31
0.0
0
LINE
5
1233
8
0-0
6
CONTINUOUS
62
  7
10
1399.879
20
1171.210
30
0.0
11
1415.879
21
1171.210
31
0.0
0
LINE
5
1234
8
0-0
6
CONTINUOUS
62
  7
10
1399.879
20
1094.183
30
0.0
11
1399.879
21
1171.210
31
0.0
0
LINE
5
1235
8
0-0
6
CONTINUOUS
62
  7
10
1415.879
20
1094.183
30
0.0
11
1415.879
21
1171.210
31
0.0
0
LINE
5
1236
8
0-0
6
CONTINUOUS
62
  7
10
1130.473
20
378.487
30
0.0
11
1138.473
21
378.487
31
0.0
0
LINE
5
1237
8
0-0
6
CONTINUOUS
62
  7
10
1138.473
20
361.487
30
0.0
11
1138.473
21
378.487
31
0.0
0
LINE
5
1238
8
ADD_LINE
6
HIDDEN
62
  3
10
1025.677
20
336.487
30
0.0
11
1025.677
21
345.938
31
0.0
0
LINE
5
1239
8
0-0
6
CONTINUOUS
62
  7
10
1130.473
20
378.487
30
0.0
11
1130.473
21
374.831
31
0.0
0
LINE
5
123a
8
ADD_LINE
6
HIDDEN
62
  3
10
1103.473
20
403.406
30
0.0
11
1103.473
21
355.743
31
0.0
0
LINE
5
123b
8
ADD_LINE
6
HIDDEN
62
  3
10
1103.473
20
366.561
30
0.0
11
1114.323
21
366.561
31
0.0
0
LINE
5
123c
8
ADD_LINE
6
HIDDEN
62
  3
10
1103.473
20
366.561
30
0.0
11
1094.821
21
366.561
31
0.0
0
LINE
5
123d
8
0-0
6
CONTINUOUS
62
  7
10
1399.879
20
632.021
30
0.0
11
1423.879
21
632.021
31
0.0
0
LINE
5
123e
8
0-0
6
CONTINUOUS
62
  7
10
1399.879
20
696.886
30
0.0
11
1399.879
21
632.021
31
0.0
0
LINE
5
123f
8
0-0
6
CONTINUOUS
62
  7
10
1423.879
20
696.886
30
0.0
11
1423.879
21
632.021
31
0.0
0
CIRCLE
5
1240
8
0-0
6
CONTINUOUS
62
  7
10
948.473
20
1024.588
30
0.0
40
3.000
0
CIRCLE
5
1241
8
0-0
6
CONTINUOUS
62
  7
10
1053.473
20
1024.588
30
0.0
40
3.000
0
CIRCLE
5
1242
8
0-0
6
CONTINUOUS
62
  7
10
878.473
20
864.588
30
0.0
40
3.000
0
CIRCLE
5
1243
8
0-0
6
CONTINUOUS
62
  7
10
878.473
20
824.588
30
0.0
40
3.000
0
ARC
5
1244
8
0-0
6
CONTINUOUS
62
  7
10
876.031
20
390.444
30
0.0
40
15.314
50
42.690552
51
126.920761
0
CIRCLE
5
1245
8
ADD_LINE
6
HIDDEN
62
  3
10
1025.677
20
336.487
30
0.0
40
3.000
0
ARC
5
1246
8
0-0
6
CONTINUOUS
62
  7
10
875.097
20
359.812
30
0.0
40
23.132
50
47.123047
51
126.507172
0
ARC
5
1247
8
0-0
6
CONTINUOUS
62
  7
10
1028.363
20
591.330
30
0.0
40
254.857
50
237.342346
51
295.597656
0
ARC
5
1248
8
0-0
6
CONTINUOUS
62
  7
10
1040.682
20
669.510
30
0.0
40
309.388
50
240.277237
51
281.709656
0
ARC
5
1249
8
0-0
6
CONTINUOUS
62
  7
10
1075.861
20
504.925
30
0.0
40
141.092
50
281.285767
51
296.344543
0
CIRCLE
5
124a
8
ADD_LINE
6
HIDDEN
62
  3
10
1103.473
20
366.561
30
0.0
40
3.000
0
TEXT
5
124b
100
AcDbEntity
8
0-0
62
7
100
AcDbText
10
979.098
20
516.151
30
0.0
40
9.750
41
0.800
50
0.000
1
300
100
AcDbText
0
TEXT
5
124c
100
AcDbEntity
8
0-0
62
7
100
AcDbText
10
961.598
20
477.172
30
0.0
40
9.750
41
0.800
50
0.000
1
265
100
AcDbText
0
TEXT
5
124d
100
AcDbEntity
8
0-0
62
7
100
AcDbText
10
1114.723
20
477.172
30
0.0
40
9.750
41
0.800
50
0.000
1
35
100
AcDbText
0
TEXT
5
124e
100
AcDbEntity
8
0-0
62
7
100
AcDbText
10
979.098
20
634.521
30
0.0
40
9.750
41
0.800
50
0.000
1
300
100
AcDbText
0
TEXT
5
124f
100
AcDbEntity
8
0-0
62
7
100
AcDbText
10
979.098
20
1226.413
30
0.0
40
9.750
41
0.800
50
0.000
1
300
100
AcDbText
0
TEXT
5
1250
100
AcDbEntity
8
0-0
62
7
100
AcDbText
10
854.723
20
1173.710
30
0.0
40
9.750
41
0.800
50
0.000
1
45
100
AcDbText
0
TEXT
5
1251
100
AcDbEntity
8
0-0
62
7
100
AcDbText
10
1001.598
20
1173.710
30
0.0
40
9.750
41
0.800
50
0.000
1
255
100
AcDbText
0
TEXT
5
1252
100
AcDbEntity
8
0-0
62
7
100
AcDbText
10
527.865
20
887.713
30
0.0
40
9.750
41
0.800
50
90.000
1
305
100
AcDbText
0
TEXT
5
1253
100
AcDbEntity
8
0-0
62
7
100
AcDbText
10
527.865
20
887.713
30
0.0
40
9.750
41
0.800
50
90.000
1
305
100
AcDbText
0
TEXT
5
1254
100
AcDbEntity
8
0-0
62
7
100
AcDbText
10
604.892
20
867.714
30
0.0
40
9.750
41
0.800
50
90.000
1
265
100
AcDbText
0
TEXT
5
1255
100
AcDbEntity
8
0-0
62
7
100
AcDbText
10
604.892
20
1023.338
30
0.0
40
9.750
41
0.800
50
90.000
1
40
100
AcDbText
0
TEXT
5
1256
100
AcDbEntity
8
0-0
62
7
100
AcDbText
10
1401.629
20
1173.710
30
0.0
40
9.750
41
0.800
50
0.000
1
16
100
AcDbText
0
TEXT
5
1257
100
AcDbEntity
8
0-0
62
7
100
AcDbText
10
1405.629
20
634.521
30
0.0
40
9.750
41
0.800
50
0.000
1
24
100
AcDbText
0
POINT
5
1258
8
0-0
62
  7
10
838.473
20
513.651
30
0.0
0
POINT
5
1259
8
0-0
62
  7
10
1138.473
20
513.651
30
0.0
0
POINT
5
125a
8
0-0
62
  7
10
838.473
20
474.672
30
0.0
0
POINT
5
125b
8
0-0
62
  7
10
1103.473
20
474.672
30
0.0
0
POINT
5
125c
8
0-0
62
  7
10
1138.473
20
474.672
30
0.0
0
POINT
5
125d
8
0-0
62
  7
10
838.473
20
632.021
30
0.0
0
POINT
5
125e
8
0-0
62
  7
10
1138.473
20
632.021
30
0.0
0
POINT
5
125f
8
0-0
62
  7
10
838.473
20
1223.913
30
0.0
0
POINT
5
1260
8
0-0
62
  7
10
1138.473
20
1223.913
30
0.0
0
POINT
5
1261
8
0-0
62
  7
10
838.473
20
1171.210
30
0.0
0
POINT
5
1262
8
0-0
62
  7
10
883.473
20
1171.210
30
0.0
0
POINT
5
1263
8
0-0
62
  7
10
1138.473
20
1171.210
30
0.0
0
POINT
5
1264
8
0-0
62
  7
10
530.365
20
744.588
30
0.0
0
POINT
5
1265
8
0-0
62
  7
10
530.365
20
1049.588
30
0.0
0
POINT
5
1266
8
0-0
62
  7
10
607.392
20
744.588
30
0.0
0
POINT
5
1267
8
0-0
62
  7
10
607.392
20
1009.588
30
0.0
0
POINT
5
1268
8
0-0
62
  7
10
607.392
20
1049.588
30
0.0
0
POINT
5
1269
8
0-0
62
  7
10
1399.879
20
1171.210
30
0.0
0
POINT
5
126a
8
0-0
62
  7
10
1415.879
20
1171.210
30
0.0
0
POINT
5
126b
8
0-0
62
  7
10
1399.879
20
632.021
30
0.0
0
POINT
5
126c
8
0-0
62
  7
10
1423.879
20
632.021
30
0.0
0
ENDSEC
0
EOF
