0
SECTION
2
HEADER
  9
$EXTMIN
10
0
20
0
30
0
  9
$EXTMAX
10
1678.378
20
1267.365
30
0
  9
$LTSCALE
40
5.000
  9
$DIMSCALE
40
5.000
  9
$PDMODE
70
0
  9
$PDSIZE
40
40
0
ENDSEC
0
SECTION
2
TABLES
0
TABLE
2
LTYPE
70
9
0
LTYPE
5
1f4
2
CONTINUOUS
70
0
3
実線
72
65
73
0
40
0.0
0
LTYPE
5
1f5
2
DOT
70
0
3
--  --  --  --  --  --  --  --     
72
65
73
2
40
5.000
49
1.000
49
-4.000
0
LTYPE
5
1f6
2
DASHED
70
0
3
----    ----    ----    ----    
72
65
73
2
40
5.000
49
2.000
49
-3.000
0
LTYPE
5
1f7
2
DASHED2
70
0
3
------  ------  ------  ------ 
72
65
73
2
40
10.000
49
4.000
49
-6.000
0
LTYPE
5
1f8
2
CENTER
70
0
3
----- - ----- - ----- - ----- - 
72
65
73
4
40
9.000
49
6.000
49
-1.000
49
1.000
49
-1.000
0
LTYPE
5
1f9
2
CENTER2
70
0
3
----------  --  ----------  -- 
72
65
73
4
40
18.000
49
12.000
49
-2.000
49
2.000
49
-2.000
0
LTYPE
5
1fa
2
PHANTOM
70
0
3
--- - - --- - - --- - - --- - -
72
65
73
6
40
10.000
49
5.000
49
-1.000
49
1.000
49
-1.000
49
1.000
49
-1.000
0
LTYPE
5
1fb
2
PHANTOM2
70
0
3
--------  -  -  --------  -  -
72
65
73
6
40
16.000
49
6.000
49
-2.000
49
2.000
49
-2.000
49
2.000
49
-2.000
0
LTYPE
5
1fc
2
HIDDEN
70
0
3
-   -   -   -   -   -   -   -   
72
65
73
2
40
2.500
49
0.500
49
-2.000
0
ENDTAB
0
TABLE
2
STYLE
70
1
0
STYLE
5
1fd
100
AcDbSymbolTableRecord
100
AcDbTextStyleTableRecord
2
STANDARD
70
0
40
0.0
41
1.0
50
0.0
71
0
42
0.0
3
txt.shx
4
extfont.shx
0
STYLE
5
1fe
100
AcDbSymbolTableRecord
100
AcDbTextStyleTableRecord
2
TATEGAKI
70
4
40
0.0
41
1.0
50
0.0
71
0
42
0.0
3
txt.shx
4
extfont.shx
0
STYLE
5
1ff
100
AcDbSymbolTableRecord
100
AcDbTextStyleTableRecord
2
MT
70
0
40
0.0
41
1.0
50
0.0
71
0
42
0.0
3
MS Mincho
4

0
STYLE
5
200
100
AcDbSymbolTableRecord
100
AcDbTextStyleTableRecord
2
TMT
70
4
40
0.0
41
1.0
50
0.0
71
0
42
0.0
3
@MS Mincho
4

0
ENDTAB
0
TABLE
2
LAYER
5
1414
100
AcDbSymbolTable
70
10
0
LAYER
5
1415
100
AcDbSymbolTableRecord
100
AcDbLayerTableRecord
2
0
70
64
62
  7
  6
CONTINUOUS
0
LAYER
5
1416
100
AcDbSymbolTableRecord
100
AcDbLayerTableRecord
2
0-0
70
64
62
  7
  6
CONTINUOUS
0
LAYER
5
1417
100
AcDbSymbolTableRecord
100
AcDbLayerTableRecord
2
ADD_LINE
70
64
62
  -7
  6
CONTINUOUS
0
ENDTAB
0
ENDSEC
0
SECTION
2
ENTITIES
0
LINE
5
1418
8
0-0
6
CONTINUOUS
62
  7
10
792.784
20
468.730
30
0.0
11
784.784
21
468.730
31
0.0
0
LINE
5
1419
8
0-0
6
CONTINUOUS
62
  7
10
792.784
20
468.730
30
0.0
11
792.784
21
465.707
31
0.0
0
LINE
5
141a
8
0-0
6
CONTINUOUS
62
  7
10
784.784
20
468.730
30
0.0
11
784.784
21
454.730
31
0.0
0
LINE
5
141b
8
0-0
6
CONTINUOUS
62
  7
10
1049.784
20
282.243
30
0.0
11
1033.784
21
282.243
31
0.0
0
LINE
5
141c
8
0-0
6
CONTINUOUS
62
  7
10
1049.784
20
330.892
30
0.0
11
1049.784
21
282.243
31
0.0
0
LINE
5
141d
8
0-0
6
CONTINUOUS
62
  7
10
1033.784
20
330.892
30
0.0
11
1033.784
21
282.243
31
0.0
0
LINE
5
141e
8
0-0
6
CONTINUOUS
62
  7
10
1033.784
20
282.243
30
0.0
11
784.784
21
282.243
31
0.0
0
LINE
5
141f
8
0-0
6
CONTINUOUS
62
  7
10
784.784
20
330.892
30
0.0
11
784.784
21
282.243
31
0.0
0
LINE
5
1420
8
0-0
6
CONTINUOUS
62
  7
10
1049.784
20
468.730
30
0.0
11
1049.784
21
355.730
31
0.0
0
LINE
5
1421
8
0-0
6
CONTINUOUS
62
  7
10
1049.784
20
355.730
30
0.0
11
1033.784
21
355.730
31
0.0
0
LINE
5
1422
8
0-0
6
CONTINUOUS
62
  7
10
1033.784
20
448.897
30
0.0
11
1033.784
21
355.730
31
0.0
0
LINE
5
1423
8
0-0
6
CONTINUOUS
62
  7
10
1049.784
20
772.162
30
0.0
11
784.784
21
772.162
31
0.0
0
LINE
5
1424
8
0-0
6
CONTINUOUS
62
  7
10
784.784
20
772.162
30
0.0
11
784.784
21
1062.162
31
0.0
0
LINE
5
1425
8
0-0
6
CONTINUOUS
62
  7
10
645.270
20
1062.162
30
0.0
11
645.270
21
772.162
31
0.0
0
LINE
5
1426
8
0-0
6
CONTINUOUS
62
  7
10
620.270
20
1062.162
30
0.0
11
620.270
21
772.162
31
0.0
0
LINE
5
1427
8
0-0
6
CONTINUOUS
62
  7
10
606.270
20
1062.162
30
0.0
11
606.270
21
1058.382
31
0.0
0
LINE
5
1428
8
0-0
6
CONTINUOUS
62
  7
10
606.270
20
1058.382
30
0.0
11
606.270
21
772.162
31
0.0
0
LINE
5
1429
8
0-0
6
CONTINUOUS
62
  7
10
645.270
20
1062.162
30
0.0
11
606.270
21
1062.162
31
0.0
0
LINE
5
142a
8
0-0
6
CONTINUOUS
62
  7
10
645.270
20
772.162
30
0.0
11
606.270
21
772.162
31
0.0
0
LINE
5
142b
8
0-0
6
CONTINUOUS
62
  7
10
1380.135
20
1042.162
30
0.0
11
1398.135
21
887.162
31
0.0
0
LINE
5
142c
8
0-0
6
CONTINUOUS
62
  7
10
1305.135
20
1042.162
30
0.0
11
1380.135
21
1042.162
31
0.0
0
LINE
5
142d
8
0-0
6
CONTINUOUS
62
  7
10
1380.135
20
1264.865
30
0.0
11
1285.135
21
1264.865
31
0.0
0
LINE
5
142e
8
0-0
6
CONTINUOUS
62
  7
10
1380.135
20
1118.919
30
0.0
11
1380.135
21
1264.865
31
0.0
0
LINE
5
142f
8
0-0
6
CONTINUOUS
62
  7
10
1285.135
20
1118.919
30
0.0
11
1285.135
21
1264.865
31
0.0
0
LINE
5
1430
8
0-0
6
CONTINUOUS
62
  7
10
1052.784
20
1042.162
30
0.0
11
1049.784
21
772.162
31
0.0
0
LINE
5
1431
8
0-0
6
CONTINUOUS
62
  7
10
1052.784
20
1264.865
30
0.0
11
784.784
21
1264.865
31
0.0
0
LINE
5
1432
8
0-0
6
CONTINUOUS
62
  7
10
1052.784
20
1118.919
30
0.0
11
1052.784
21
1264.865
31
0.0
0
LINE
5
1433
8
0-0
6
CONTINUOUS
62
  7
10
784.784
20
1118.919
30
0.0
11
784.784
21
1264.865
31
0.0
0
LINE
5
1434
8
0-0
6
CONTINUOUS
62
  7
10
1052.784
20
1042.162
30
0.0
11
1022.784
21
1042.162
31
0.0
0
LINE
5
1435
8
0-0
6
CONTINUOUS
62
  7
10
1022.784
20
1042.162
30
0.0
11
1022.784
21
1062.162
31
0.0
0
LINE
5
1436
8
0-0
6
CONTINUOUS
62
  7
10
1022.784
20
1062.162
30
0.0
11
784.784
21
1062.162
31
0.0
0
LINE
5
1437
8
0-0
6
CONTINUOUS
62
  7
10
1052.784
20
1208.108
30
0.0
11
1022.784
21
1208.108
31
0.0
0
LINE
5
1438
8
0-0
6
CONTINUOUS
62
  7
10
1052.784
20
1118.919
30
0.0
11
1052.784
21
1208.108
31
0.0
0
LINE
5
1439
8
0-0
6
CONTINUOUS
62
  7
10
1022.784
20
1118.919
30
0.0
11
1022.784
21
1208.108
31
0.0
0
LINE
5
143a
8
0-0
6
CONTINUOUS
62
  7
10
1022.784
20
1208.108
30
0.0
11
784.784
21
1208.108
31
0.0
0
LINE
5
143b
8
0-0
6
CONTINUOUS
62
  7
10
784.784
20
1118.919
30
0.0
11
784.784
21
1208.108
31
0.0
0
LINE
5
143c
8
0-0
6
CONTINUOUS
62
  7
10
620.270
20
1208.108
30
0.0
11
606.270
21
1208.108
31
0.0
0
LINE
5
143d
8
0-0
6
CONTINUOUS
62
  7
10
620.270
20
1118.919
30
0.0
11
620.270
21
1208.108
31
0.0
0
LINE
5
143e
8
0-0
6
CONTINUOUS
62
  7
10
606.270
20
1118.919
30
0.0
11
606.270
21
1208.108
31
0.0
0
LINE
5
143f
8
0-0
6
CONTINUOUS
62
  7
10
1049.784
20
600.000
30
0.0
11
784.784
21
600.000
31
0.0
0
LINE
5
1440
8
0-0
6
CONTINUOUS
62
  7
10
1049.784
20
721.622
30
0.0
11
1049.784
21
600.000
31
0.0
0
LINE
5
1441
8
0-0
6
CONTINUOUS
62
  7
10
784.784
20
721.622
30
0.0
11
784.784
21
600.000
31
0.0
0
LINE
5
1442
8
0-0
6
CONTINUOUS
62
  7
10
1678.378
20
1062.162
30
0.0
11
1678.378
21
772.162
31
0.0
0
LINE
5
1443
8
0-0
6
CONTINUOUS
62
  7
10
1467.568
20
1062.162
30
0.0
11
1678.378
21
1062.162
31
0.0
0
LINE
5
1444
8
0-0
6
CONTINUOUS
62
  7
10
1467.568
20
772.162
30
0.0
11
1678.378
21
772.162
31
0.0
0
LINE
5
1445
8
0-0
6
CONTINUOUS
62
  7
10
1609.460
20
1062.162
30
0.0
11
1609.460
21
1042.162
31
0.0
0
LINE
5
1446
8
0-0
6
CONTINUOUS
62
  7
10
1467.568
20
1062.162
30
0.0
11
1609.460
21
1062.162
31
0.0
0
LINE
5
1447
8
0-0
6
CONTINUOUS
62
  7
10
1467.568
20
1042.162
30
0.0
11
1609.460
21
1042.162
31
0.0
0
LINE
5
1448
8
0-0
6
CONTINUOUS
62
  7
10
1609.460
20
1042.162
30
0.0
11
1609.460
21
887.162
31
0.0
0
LINE
5
1449
8
0-0
6
CONTINUOUS
62
  7
10
1467.568
20
887.162
30
0.0
11
1609.460
21
887.162
31
0.0
0
LINE
5
144a
8
0-0
6
CONTINUOUS
62
  7
10
1609.460
20
887.162
30
0.0
11
1609.460
21
772.162
31
0.0
0
LINE
5
144b
8
0-0
6
CONTINUOUS
62
  7
10
1467.568
20
772.162
30
0.0
11
1609.460
21
772.162
31
0.0
0
LINE
5
144c
8
0-0
6
CONTINUOUS
62
  7
10
1183.784
20
1062.162
30
0.0
11
1183.784
21
1042.162
31
0.0
0
LINE
5
144d
8
0-0
6
CONTINUOUS
62
  7
10
1086.487
20
1062.162
30
0.0
11
1183.784
21
1062.162
31
0.0
0
LINE
5
144e
8
0-0
6
CONTINUOUS
62
  7
10
1086.487
20
1042.162
30
0.0
11
1183.784
21
1042.162
31
0.0
0
LINE
5
144f
8
0-0
6
CONTINUOUS
62
  7
10
1183.784
20
1042.162
30
0.0
11
1183.784
21
772.162
31
0.0
0
LINE
5
1450
8
0-0
6
CONTINUOUS
62
  7
10
1086.487
20
772.162
30
0.0
11
1183.784
21
772.162
31
0.0
0
LINE
5
1451
8
0-0
6
CONTINUOUS
62
  7
10
1183.784
20
468.730
30
0.0
11
1183.784
21
355.730
31
0.0
0
LINE
5
1452
8
0-0
6
CONTINUOUS
62
  7
10
1086.487
20
468.730
30
0.0
11
1183.784
21
468.730
31
0.0
0
LINE
5
1453
8
0-0
6
CONTINUOUS
62
  7
10
1086.487
20
355.730
30
0.0
11
1183.784
21
355.730
31
0.0
0
LINE
5
1454
8
0-0
6
CONTINUOUS
62
  7
10
1127.027
20
1042.162
30
0.0
11
1127.027
21
887.162
31
0.0
0
LINE
5
1455
8
0-0
6
CONTINUOUS
62
  7
10
1086.487
20
1042.162
30
0.0
11
1127.027
21
1042.162
31
0.0
0
LINE
5
1456
8
0-0
6
CONTINUOUS
62
  7
10
1086.487
20
887.162
30
0.0
11
1127.027
21
887.162
31
0.0
0
LINE
5
1457
8
0-0
6
CONTINUOUS
62
  7
10
1305.135
20
1042.162
30
0.0
11
1285.135
21
1042.162
31
0.0
0
LINE
5
1458
8
ADD_LINE
6
HIDDEN
62
  3
10
1071.186
20
429.730
30
0.0
11
1003.089
21
429.730
31
0.0
0
LINE
5
1459
8
0-0
6
CONTINUOUS
62
  7
10
1285.135
20
1042.162
30
0.0
11
1285.135
21
772.162
31
0.0
0
LINE
5
145a
8
0-0
6
CONTINUOUS
62
  7
10
1303.135
20
887.162
30
0.0
11
1398.135
21
887.162
31
0.0
0
LINE
5
145b
8
0-0
6
CONTINUOUS
62
  7
10
1303.135
20
887.162
30
0.0
11
1303.135
21
772.162
31
0.0
0
LINE
5
145c
8
0-0
6
CONTINUOUS
62
  7
10
1285.135
20
772.162
30
0.0
11
1303.135
21
772.162
31
0.0
0
LINE
5
145d
8
0-0
6
CONTINUOUS
62
  7
10
1285.135
20
600.000
30
0.0
11
1398.135
21
600.000
31
0.0
0
LINE
5
145e
8
0-0
6
CONTINUOUS
62
  7
10
1285.135
20
721.622
30
0.0
11
1285.135
21
600.000
31
0.0
0
LINE
5
145f
8
0-0
6
CONTINUOUS
62
  7
10
1398.135
20
721.622
30
0.0
11
1398.135
21
600.000
31
0.0
0
LINE
5
1460
8
0-0
6
CONTINUOUS
62
  7
10
1285.135
20
648.649
30
0.0
11
1303.135
21
648.649
31
0.0
0
LINE
5
1461
8
0-0
6
CONTINUOUS
62
  7
10
1285.135
20
721.622
30
0.0
11
1285.135
21
648.649
31
0.0
0
LINE
5
1462
8
0-0
6
CONTINUOUS
62
  7
10
1303.135
20
721.622
30
0.0
11
1303.135
21
648.649
31
0.0
0
LINE
5
1463
8
0-0
6
CONTINUOUS
62
  7
10
1303.135
20
648.649
30
0.0
11
1398.135
21
648.649
31
0.0
0
LINE
5
1464
8
0-0
6
CONTINUOUS
62
  7
10
1398.135
20
721.622
30
0.0
11
1398.135
21
648.649
31
0.0
0
ARC
5
1465
8
0-0
6
CONTINUOUS
62
  7
10
917.284
20
793.355
30
0.0
40
363.626
50
248.630203
51
291.369812
0
ARC
5
1466
8
0-0
6
CONTINUOUS
62
  7
10
917.284
20
807.355
30
0.0
40
363.625
50
249.977707
51
291.369812
0
CIRCLE
5
1467
8
ADD_LINE
6
HIDDEN
62
  3
10
1033.784
20
429.730
30
0.0
40
3.000
0
CIRCLE
5
1468
8
0-0
6
CONTINUOUS
62
  7
10
959.784
20
1042.162
30
0.0
40
3.000
0
CIRCLE
5
1469
8
0-0
6
CONTINUOUS
62
  7
10
859.784
20
1042.162
30
0.0
40
3.000
0
TEXT
5
146a
100
AcDbEntity
8
0-0
62
7
100
AcDbText
10
1035.534
20
284.743
30
0.0
40
9.750
41
0.800
50
0.000
1
16
100
AcDbText
0
TEXT
5
146b
100
AcDbEntity
8
0-0
62
7
100
AcDbText
10
899.909
20
284.743
30
0.0
40
9.750
41
0.800
50
0.000
1
249
100
AcDbText
0
TEXT
5
146c
100
AcDbEntity
8
0-0
62
7
100
AcDbText
10
1326.385
20
1267.365
30
0.0
40
9.750
41
0.800
50
0.000
1
95
100
AcDbText
0
TEXT
5
146d
100
AcDbEntity
8
0-0
62
7
100
AcDbText
10
909.409
20
1267.365
30
0.0
40
9.750
41
0.800
50
0.000
1
268
100
AcDbText
0
TEXT
5
146e
100
AcDbEntity
8
0-0
62
7
100
AcDbText
10
1031.534
20
1210.608
30
0.0
40
9.750
41
0.800
50
0.000
1
30
100
AcDbText
0
TEXT
5
146f
100
AcDbEntity
8
0-0
62
7
100
AcDbText
10
894.409
20
1210.608
30
0.0
40
9.750
41
0.800
50
0.000
1
238
100
AcDbText
0
TEXT
5
1470
100
AcDbEntity
8
0-0
62
7
100
AcDbText
10
607.020
20
1210.608
30
0.0
40
9.750
41
0.800
50
0.000
1
14
100
AcDbText
0
TEXT
5
1471
100
AcDbEntity
8
0-0
62
7
100
AcDbText
10
907.909
20
602.500
30
0.0
40
9.750
41
0.800
50
0.000
1
265
100
AcDbText
0
TEXT
5
1472
100
AcDbEntity
8
0-0
62
7
100
AcDbText
10
1675.285
20
907.787
30
0.0
40
9.750
41
0.800
50
90.000
1
290
100
AcDbText
0
TEXT
5
1473
100
AcDbEntity
8
0-0
62
7
100
AcDbText
10
1607.228
20
1045.912
30
0.0
40
9.750
41
0.800
50
90.000
1
20
100
AcDbText
0
TEXT
5
1474
100
AcDbEntity
8
0-0
62
7
100
AcDbText
10
1607.228
20
955.287
30
0.0
40
9.750
41
0.800
50
90.000
1
155
100
AcDbText
0
TEXT
5
1475
100
AcDbEntity
8
0-0
62
7
100
AcDbText
10
1607.228
20
820.287
30
0.0
40
9.750
41
0.800
50
90.000
1
115
100
AcDbText
0
TEXT
5
1476
100
AcDbEntity
8
0-0
62
7
100
AcDbText
10
1179.829
20
1046.774
30
0.0
40
9.750
41
0.800
50
90.000
1
20
100
AcDbText
0
TEXT
5
1477
100
AcDbEntity
8
0-0
62
7
100
AcDbText
10
1179.829
20
898.649
30
0.0
40
9.750
41
0.800
50
90.000
1
270
100
AcDbText
0
TEXT
5
1478
100
AcDbEntity
8
0-0
62
7
100
AcDbText
10
1182.239
20
402.855
30
0.0
40
9.750
41
0.800
50
90.000
1
113
100
AcDbText
0
TEXT
5
1479
100
AcDbEntity
8
0-0
62
7
100
AcDbText
10
1123.933
20
956.149
30
0.0
40
9.750
41
0.800
50
90.000
1
155
100
AcDbText
0
TEXT
5
147a
100
AcDbEntity
8
0-0
62
7
100
AcDbText
10
1332.260
20
602.500
30
0.0
40
9.750
41
0.800
50
0.000
1
113
100
AcDbText
0
TEXT
5
147b
100
AcDbEntity
8
0-0
62
7
100
AcDbText
10
1287.885
20
651.149
30
0.0
40
9.750
41
0.800
50
0.000
1
18
100
AcDbText
0
TEXT
5
147c
100
AcDbEntity
8
0-0
62
7
100
AcDbText
10
1344.385
20
651.149
30
0.0
40
9.750
41
0.800
50
0.000
1
95
100
AcDbText
0
POINT
5
147d
8
0-0
62
  7
10
1049.784
20
282.243
30
0.0
0
POINT
5
147e
8
0-0
62
  7
10
1033.784
20
282.243
30
0.0
0
POINT
5
147f
8
0-0
62
  7
10
784.784
20
282.243
30
0.0
0
POINT
5
1480
8
0-0
62
  7
10
1380.135
20
1264.865
30
0.0
0
POINT
5
1481
8
0-0
62
  7
10
1285.135
20
1264.865
30
0.0
0
POINT
5
1482
8
0-0
62
  7
10
1052.784
20
1264.865
30
0.0
0
POINT
5
1483
8
0-0
62
  7
10
784.784
20
1264.865
30
0.0
0
POINT
5
1484
8
0-0
62
  7
10
1052.784
20
1208.108
30
0.0
0
POINT
5
1485
8
0-0
62
  7
10
1022.784
20
1208.108
30
0.0
0
POINT
5
1486
8
0-0
62
  7
10
784.784
20
1208.108
30
0.0
0
POINT
5
1487
8
0-0
62
  7
10
620.270
20
1208.108
30
0.0
0
POINT
5
1488
8
0-0
62
  7
10
606.270
20
1208.108
30
0.0
0
POINT
5
1489
8
0-0
62
  7
10
1049.784
20
600.000
30
0.0
0
POINT
5
148a
8
0-0
62
  7
10
784.784
20
600.000
30
0.0
0
POINT
5
148b
8
0-0
62
  7
10
1678.378
20
1062.162
30
0.0
0
POINT
5
148c
8
0-0
62
  7
10
1678.378
20
772.162
30
0.0
0
POINT
5
148d
8
0-0
62
  7
10
1609.460
20
1062.162
30
0.0
0
POINT
5
148e
8
0-0
62
  7
10
1609.460
20
1042.162
30
0.0
0
POINT
5
148f
8
0-0
62
  7
10
1609.460
20
887.162
30
0.0
0
POINT
5
1490
8
0-0
62
  7
10
1609.460
20
772.162
30
0.0
0
POINT
5
1491
8
0-0
62
  7
10
1183.784
20
1062.162
30
0.0
0
POINT
5
1492
8
0-0
62
  7
10
1183.784
20
1042.162
30
0.0
0
POINT
5
1493
8
0-0
62
  7
10
1183.784
20
772.162
30
0.0
0
POINT
5
1494
8
0-0
62
  7
10
1183.784
20
468.730
30
0.0
0
POINT
5
1495
8
0-0
62
  7
10
1183.784
20
355.730
30
0.0
0
POINT
5
1496
8
0-0
62
  7
10
1127.027
20
1042.162
30
0.0
0
POINT
5
1497
8
0-0
62
  7
10
1127.027
20
887.162
30
0.0
0
POINT
5
1498
8
0-0
62
  7
10
1285.135
20
600.000
30
0.0
0
POINT
5
1499
8
0-0
62
  7
10
1398.135
20
600.000
30
0.0
0
POINT
5
149a
8
0-0
62
  7
10
1285.135
20
648.649
30
0.0
0
POINT
5
149b
8
0-0
62
  7
10
1303.135
20
648.649
30
0.0
0
POINT
5
149c
8
0-0
62
  7
10
1398.135
20
648.649
30
0.0
0
ENDSEC
0
EOF
