0
SECTION
2
HEADER
  9
$EXTMIN
10
0
20
0
30
0
  9
$EXTMAX
10
1494.688
20
1278.933
30
0
  9
$LTSCALE
40
5.000
  9
$DIMSCALE
40
5.000
  9
$PDMODE
70
0
  9
$PDSIZE
40
40
0
ENDSEC
0
SECTION
2
TABLES
0
TABLE
2
LTYPE
70
9
0
LTYPE
5
1f4
2
CONTINUOUS
70
0
3
実線
72
65
73
0
40
0.0
0
LTYPE
5
1f5
2
DOT
70
0
3
--  --  --  --  --  --  --  --     
72
65
73
2
40
5.000
49
1.000
49
-4.000
0
LTYPE
5
1f6
2
DASHED
70
0
3
----    ----    ----    ----    
72
65
73
2
40
5.000
49
2.000
49
-3.000
0
LTYPE
5
1f7
2
DASHED2
70
0
3
------  ------  ------  ------ 
72
65
73
2
40
10.000
49
4.000
49
-6.000
0
LTYPE
5
1f8
2
CENTER
70
0
3
----- - ----- - ----- - ----- - 
72
65
73
4
40
9.000
49
6.000
49
-1.000
49
1.000
49
-1.000
0
LTYPE
5
1f9
2
CENTER2
70
0
3
----------  --  ----------  -- 
72
65
73
4
40
18.000
49
12.000
49
-2.000
49
2.000
49
-2.000
0
LTYPE
5
1fa
2
PHANTOM
70
0
3
--- - - --- - - --- - - --- - -
72
65
73
6
40
10.000
49
5.000
49
-1.000
49
1.000
49
-1.000
49
1.000
49
-1.000
0
LTYPE
5
1fb
2
PHANTOM2
70
0
3
--------  -  -  --------  -  -
72
65
73
6
40
16.000
49
6.000
49
-2.000
49
2.000
49
-2.000
49
2.000
49
-2.000
0
LTYPE
5
1fc
2
HIDDEN
70
0
3
-   -   -   -   -   -   -   -   
72
65
73
2
40
2.500
49
0.500
49
-2.000
0
ENDTAB
0
TABLE
2
STYLE
70
1
0
STYLE
5
1fd
100
AcDbSymbolTableRecord
100
AcDbTextStyleTableRecord
2
STANDARD
70
0
40
0.0
41
1.0
50
0.0
71
0
42
0.0
3
txt.shx
4
extfont.shx
0
STYLE
5
1fe
100
AcDbSymbolTableRecord
100
AcDbTextStyleTableRecord
2
TATEGAKI
70
4
40
0.0
41
1.0
50
0.0
71
0
42
0.0
3
txt.shx
4
extfont.shx
0
STYLE
5
1ff
100
AcDbSymbolTableRecord
100
AcDbTextStyleTableRecord
2
MT
70
0
40
0.0
41
1.0
50
0.0
71
0
42
0.0
3
MS Mincho
4

0
STYLE
5
200
100
AcDbSymbolTableRecord
100
AcDbTextStyleTableRecord
2
TMT
70
4
40
0.0
41
1.0
50
0.0
71
0
42
0.0
3
@MS Mincho
4

0
ENDTAB
0
TABLE
2
LAYER
5
4f2
100
AcDbSymbolTable
70
10
0
LAYER
5
4f3
100
AcDbSymbolTableRecord
100
AcDbLayerTableRecord
2
0
70
64
62
  7
  6
CONTINUOUS
0
LAYER
5
4f4
100
AcDbSymbolTableRecord
100
AcDbLayerTableRecord
2
0-0
70
64
62
  7
  6
CONTINUOUS
0
LAYER
5
4f5
100
AcDbSymbolTableRecord
100
AcDbLayerTableRecord
2
ADD_LINE
70
64
62
  -7
  6
CONTINUOUS
0
ENDTAB
0
ENDSEC
0
SECTION
2
ENTITIES
0
LINE
5
4f6
8
0-0
6
CONTINUOUS
62
  7
10
851.040
20
1116.768
30
0.0
11
1111.040
21
1116.768
31
0.0
0
LINE
5
4f7
8
0-0
6
CONTINUOUS
62
  7
10
851.040
20
1076.768
30
0.0
11
851.040
21
1116.768
31
0.0
0
LINE
5
4f8
8
0-0
6
CONTINUOUS
62
  7
10
806.040
20
1076.768
30
0.0
11
851.040
21
1076.768
31
0.0
0
LINE
5
4f9
8
0-0
6
CONTINUOUS
62
  7
10
806.040
20
811.768
30
0.0
11
806.040
21
1076.768
31
0.0
0
LINE
5
4fa
8
0-0
6
CONTINUOUS
62
  7
10
1071.040
20
841.768
30
0.0
11
1111.040
21
841.768
31
0.0
0
LINE
5
4fb
8
0-0
6
CONTINUOUS
62
  7
10
1111.040
20
841.768
30
0.0
11
1111.040
21
1116.768
31
0.0
0
LINE
5
4fc
8
0-0
6
CONTINUOUS
62
  7
10
806.040
20
811.768
30
0.0
11
1071.040
21
811.768
31
0.0
0
LINE
5
4fd
8
0-0
6
CONTINUOUS
62
  7
10
1071.040
20
811.768
30
0.0
11
1071.040
21
841.768
31
0.0
0
LINE
5
4fe
8
0-0
6
CONTINUOUS
62
  7
10
876.040
20
1108.768
30
0.0
11
876.040
21
1116.768
31
0.0
0
LINE
5
4ff
8
0-0
6
CONTINUOUS
62
  7
10
876.040
20
1108.768
30
0.0
11
1103.040
21
1108.768
31
0.0
0
LINE
5
500
8
0-0
6
CONTINUOUS
62
  7
10
1103.040
20
841.768
30
0.0
11
1103.040
21
1108.768
31
0.0
0
LINE
5
501
8
0-0
6
CONTINUOUS
62
  7
10
1377.148
20
1116.768
30
0.0
11
1377.148
21
1108.768
31
0.0
0
LINE
5
502
8
0-0
6
CONTINUOUS
62
  7
10
1367.148
20
1108.768
30
0.0
11
1367.148
21
811.768
31
0.0
0
LINE
5
503
8
0-0
6
CONTINUOUS
62
  7
10
1347.148
20
1116.768
30
0.0
11
1347.148
21
1108.768
31
0.0
0
LINE
5
504
8
0-0
6
CONTINUOUS
62
  7
10
1367.148
20
1108.768
30
0.0
11
1377.148
21
1108.768
31
0.0
0
LINE
5
505
8
0-0
6
CONTINUOUS
62
  7
10
1304.148
20
1076.768
30
0.0
11
1310.148
21
1076.768
31
0.0
0
LINE
5
506
8
0-0
6
CONTINUOUS
62
  7
10
1310.148
20
1116.768
30
0.0
11
1310.148
21
1076.768
31
0.0
0
LINE
5
507
8
0-0
6
CONTINUOUS
62
  7
10
1310.148
20
1116.768
30
0.0
11
1377.148
21
1116.768
31
0.0
0
LINE
5
508
8
0-0
6
CONTINUOUS
62
  7
10
1310.148
20
1108.768
30
0.0
11
1353.148
21
1108.768
31
0.0
0
LINE
5
509
8
0-0
6
CONTINUOUS
62
  7
10
1361.148
20
811.768
30
0.0
11
1367.148
21
811.768
31
0.0
0
LINE
5
50a
8
0-0
6
CONTINUOUS
62
  7
10
1353.148
20
819.768
30
0.0
11
1353.148
21
1108.768
31
0.0
0
LINE
5
50b
8
0-0
6
CONTINUOUS
62
  7
10
670.908
20
811.768
30
0.0
11
670.908
21
1116.768
31
0.0
0
LINE
5
50c
8
0-0
6
CONTINUOUS
62
  7
10
756.778
20
811.768
30
0.0
11
670.908
21
811.768
31
0.0
0
LINE
5
50d
8
0-0
6
CONTINUOUS
62
  7
10
756.778
20
1116.768
30
0.0
11
670.908
21
1116.768
31
0.0
0
LINE
5
50e
8
0-0
6
CONTINUOUS
62
  7
10
704.302
20
811.768
30
0.0
11
704.302
21
1076.768
31
0.0
0
LINE
5
50f
8
0-0
6
CONTINUOUS
62
  7
10
756.778
20
811.768
30
0.0
11
704.302
21
811.768
31
0.0
0
LINE
5
510
8
0-0
6
CONTINUOUS
62
  7
10
756.778
20
1076.768
30
0.0
11
704.302
21
1076.768
31
0.0
0
LINE
5
511
8
0-0
6
CONTINUOUS
62
  7
10
704.302
20
1076.768
30
0.0
11
704.302
21
1116.768
31
0.0
0
LINE
5
512
8
0-0
6
CONTINUOUS
62
  7
10
756.778
20
1116.768
30
0.0
11
704.302
21
1116.768
31
0.0
0
LINE
5
513
8
0-0
6
CONTINUOUS
62
  7
10
806.040
20
714.092
30
0.0
11
1111.040
21
714.092
31
0.0
0
LINE
5
514
8
0-0
6
CONTINUOUS
62
  7
10
806.040
20
776.109
30
0.0
11
806.040
21
714.092
31
0.0
0
LINE
5
515
8
0-0
6
CONTINUOUS
62
  7
10
1111.040
20
776.109
30
0.0
11
1111.040
21
714.092
31
0.0
0
LINE
5
516
8
0-0
6
CONTINUOUS
62
  7
10
806.040
20
745.101
30
0.0
11
1071.040
21
745.101
31
0.0
0
LINE
5
517
8
0-0
6
CONTINUOUS
62
  7
10
806.040
20
776.109
30
0.0
11
806.040
21
745.101
31
0.0
0
LINE
5
518
8
0-0
6
CONTINUOUS
62
  7
10
1071.040
20
776.109
30
0.0
11
1071.040
21
745.101
31
0.0
0
LINE
5
519
8
0-0
6
CONTINUOUS
62
  7
10
1071.040
20
745.101
30
0.0
11
1111.040
21
745.101
31
0.0
0
LINE
5
51a
8
0-0
6
CONTINUOUS
62
  7
10
1111.040
20
776.109
30
0.0
11
1111.040
21
745.101
31
0.0
0
LINE
5
51b
8
0-0
6
CONTINUOUS
62
  7
10
1494.688
20
811.768
30
0.0
11
1494.688
21
1116.768
31
0.0
0
LINE
5
51c
8
0-0
6
CONTINUOUS
62
  7
10
1429.824
20
811.768
30
0.0
11
1494.688
21
811.768
31
0.0
0
LINE
5
51d
8
0-0
6
CONTINUOUS
62
  7
10
1429.824
20
1116.768
30
0.0
11
1494.688
21
1116.768
31
0.0
0
LINE
5
51e
8
0-0
6
CONTINUOUS
62
  7
10
806.040
20
1276.433
30
0.0
11
1111.040
21
1276.433
31
0.0
0
LINE
5
51f
8
0-0
6
CONTINUOUS
62
  7
10
806.040
20
1151.149
30
0.0
11
806.040
21
1276.433
31
0.0
0
LINE
5
520
8
0-0
6
CONTINUOUS
62
  7
10
1111.040
20
1151.149
30
0.0
11
1111.040
21
1276.433
31
0.0
0
LINE
5
521
8
0-0
6
CONTINUOUS
62
  7
10
1111.040
20
1225.593
30
0.0
11
851.040
21
1225.593
31
0.0
0
LINE
5
522
8
0-0
6
CONTINUOUS
62
  7
10
1111.040
20
1151.149
30
0.0
11
1111.040
21
1225.593
31
0.0
0
LINE
5
523
8
0-0
6
CONTINUOUS
62
  7
10
851.040
20
1151.149
30
0.0
11
851.040
21
1225.593
31
0.0
0
LINE
5
524
8
0-0
6
CONTINUOUS
62
  7
10
851.040
20
1225.593
30
0.0
11
806.040
21
1225.593
31
0.0
0
LINE
5
525
8
0-0
6
CONTINUOUS
62
  7
10
806.040
20
1151.149
30
0.0
11
806.040
21
1225.593
31
0.0
0
LINE
5
526
8
0-0
6
CONTINUOUS
62
  7
10
1208.353
20
811.768
30
0.0
11
1208.353
21
841.768
31
0.0
0
LINE
5
527
8
0-0
6
CONTINUOUS
62
  7
10
1153.882
20
811.768
30
0.0
11
1208.353
21
811.768
31
0.0
0
LINE
5
528
8
0-0
6
CONTINUOUS
62
  7
10
1153.882
20
841.768
30
0.0
11
1208.353
21
841.768
31
0.0
0
LINE
5
529
8
0-0
6
CONTINUOUS
62
  7
10
1208.353
20
841.768
30
0.0
11
1208.353
21
1116.768
31
0.0
0
LINE
5
52a
8
0-0
6
CONTINUOUS
62
  7
10
1153.882
20
1116.768
30
0.0
11
1208.353
21
1116.768
31
0.0
0
LINE
5
52b
8
0-0
6
CONTINUOUS
62
  7
10
1304.148
20
811.768
30
0.0
11
1304.148
21
1076.768
31
0.0
0
LINE
5
52c
8
0-0
6
CONTINUOUS
62
  7
10
1304.148
20
811.768
30
0.0
11
1361.148
21
811.768
31
0.0
0
LINE
5
52d
8
0-0
6
CONTINUOUS
62
  7
10
1353.148
20
819.768
30
0.0
11
1353.148
21
811.768
31
0.0
0
LINE
5
52e
8
0-0
6
CONTINUOUS
62
  7
10
834.398
20
466.596
30
0.0
11
806.040
21
450.471
31
0.0
0
LINE
5
52f
8
0-0
6
CONTINUOUS
62
  7
10
1104.093
20
452.184
30
0.0
11
1111.040
21
452.184
31
0.0
0
LINE
5
530
8
0-0
6
CONTINUOUS
62
  7
10
806.040
20
450.471
30
0.0
11
806.040
21
436.471
31
0.0
0
LINE
5
531
8
0-0
6
CONTINUOUS
62
  7
10
828.902
20
448.314
30
0.0
11
806.040
21
436.471
31
0.0
0
LINE
5
532
8
0-0
6
CONTINUOUS
62
  7
10
1111.040
20
452.184
30
0.0
11
1111.040
21
436.278
31
0.0
0
LINE
5
533
8
0-0
6
CONTINUOUS
62
  7
10
1111.040
20
452.184
30
0.0
11
1111.040
21
436.278
31
0.0
0
LINE
5
534
8
ADD_LINE
6
HIDDEN
62
  3
10
1111.040
20
452.184
30
0.0
11
1111.040
21
505.774
31
0.0
0
LINE
5
535
8
0-0
6
CONTINUOUS
62
  7
10
806.040
20
577.239
30
0.0
11
1111.040
21
577.239
31
0.0
0
LINE
5
536
8
0-0
6
CONTINUOUS
62
  7
10
806.040
20
505.237
30
0.0
11
806.040
21
577.239
31
0.0
0
LINE
5
537
8
0-0
6
CONTINUOUS
62
  7
10
1111.040
20
505.237
30
0.0
11
1111.040
21
577.239
31
0.0
0
LINE
5
538
8
ADD_LINE
6
HIDDEN
62
  7
10
1071.040
20
505.237
30
0.0
11
1071.040
21
577.239
31
0.0
0
LINE
5
539
8
0-0
6
CONTINUOUS
62
  7
10
806.040
20
541.238
30
0.0
11
1071.040
21
541.238
31
0.0
0
LINE
5
53a
8
0-0
6
CONTINUOUS
62
  7
10
806.040
20
505.237
30
0.0
11
806.040
21
541.238
31
0.0
0
LINE
5
53b
8
0-0
6
CONTINUOUS
62
  7
10
1071.040
20
505.237
30
0.0
11
1071.040
21
541.238
31
0.0
0
LINE
5
53c
8
ADD_LINE
6
HIDDEN
62
  3
10
993.243
20
409.459
30
0.0
11
993.243
21
407.435
31
0.0
0
LINE
5
53d
8
ADD_LINE
6
HIDDEN
62
  3
10
993.243
20
409.459
30
0.0
11
1062.319
21
409.459
31
0.0
0
LINE
5
53e
8
ADD_LINE
6
HIDDEN
62
  3
10
993.241
20
409.459
30
0.0
11
921.022
21
409.459
31
0.0
0
LINE
5
53f
8
ADD_LINE
6
HIDDEN
62
  3
10
993.241
20
409.459
30
0.0
11
993.241
21
415.359
31
0.0
0
LINE
5
540
8
ADD_LINE
6
HIDDEN
62
  3
10
993.243
20
407.435
30
0.0
11
993.243
21
404.522
31
0.0
0
LINE
5
541
8
ADD_LINE
6
HIDDEN
62
  3
10
806.040
20
505.237
30
0.0
11
806.040
21
445.300
31
0.0
0
LINE
5
542
8
ADD_LINE
6
HIDDEN
62
  3
10
1071.040
20
505.237
30
0.0
11
1071.040
21
400.698
31
0.0
0
LINE
5
543
8
ADD_LINE
6
HIDDEN
62
  3
10
806.040
20
450.471
30
0.0
11
801.685
21
450.471
31
0.0
0
LINE
5
544
8
ADD_LINE
6
HIDDEN
62
  3
10
806.040
20
450.471
30
0.0
11
811.287
21
450.471
31
0.0
0
LINE
5
545
8
ADD_LINE
6
HIDDEN
62
  3
10
1062.295
20
450.471
30
0.0
11
1078.478
21
450.471
31
0.0
0
CIRCLE
5
546
8
0-0
6
CONTINUOUS
62
  7
10
911.040
20
1096.768
30
0.0
40
3.000
0
ARC
5
547
8
0-0
6
CONTINUOUS
62
  7
10
843.597
20
454.353
30
0.0
40
15.314
50
42.690552
51
126.920761
0
ARC
5
548
8
0-0
6
CONTINUOUS
62
  7
10
842.664
20
429.721
30
0.0
40
23.132
50
47.123047
51
126.507172
0
ARC
5
549
8
0-0
6
CONTINUOUS
62
  7
10
993.692
20
677.789
30
0.0
40
254.299
50
236.909088
51
297.481079
0
ARC
5
54a
8
0-0
6
CONTINUOUS
62
  7
10
994.391
20
676.526
30
0.0
40
267.069
50
239.390030
51
295.898193
0
CIRCLE
5
54b
8
ADD_LINE
6
HIDDEN
62
  3
10
993.241
20
409.459
30
0.0
40
3.000
0
CIRCLE
5
54c
8
ADD_LINE
6
HIDDEN
62
  3
10
1071.040
20
450.471
30
0.0
40
3.000
0
CIRCLE
5
54d
8
ADD_LINE
6
HIDDEN
62
  3
10
806.040
20
450.471
30
0.0
40
3.000
0
ARC
5
54e
8
0-0
6
CONTINUOUS
62
  7
10
1099.982
20
451.382
30
0.0
40
4.188
50
292.472412
51
11.038757
0
TEXT
5
54f
100
AcDbEntity
8
0-0
62
4
100
AcDbText
10
668.408
20
954.893
30
0.0
40
9.750
41
0.800
50
90.000
1
305
100
AcDbText
0
TEXT
5
550
100
AcDbEntity
8
0-0
62
4
100
AcDbText
10
701.802
20
934.893
30
0.0
40
9.750
41
0.800
50
90.000
1
265
100
AcDbText
0
TEXT
5
551
100
AcDbEntity
8
0-0
62
4
100
AcDbText
10
701.802
20
1090.518
30
0.0
40
9.750
41
0.800
50
90.000
1
40
100
AcDbText
0
TEXT
5
552
100
AcDbEntity
8
0-0
62
4
100
AcDbText
10
949.165
20
716.592
30
0.0
40
9.750
41
0.800
50
0.000
1
305
100
AcDbText
0
TEXT
5
553
100
AcDbEntity
8
0-0
62
4
100
AcDbText
10
929.165
20
747.601
30
0.0
40
9.750
41
0.800
50
0.000
1
265
100
AcDbText
0
TEXT
5
554
100
AcDbEntity
8
0-0
62
4
100
AcDbText
10
1084.790
20
747.601
30
0.0
40
9.750
41
0.800
50
0.000
1
40
100
AcDbText
0
TEXT
5
555
100
AcDbEntity
8
0-0
62
4
100
AcDbText
10
1492.188
20
954.893
30
0.0
40
9.750
41
0.800
50
90.000
1
305
100
AcDbText
0
TEXT
5
556
100
AcDbEntity
8
0-0
62
4
100
AcDbText
10
949.165
20
1278.933
30
0.0
40
9.750
41
0.800
50
0.000
1
305
100
AcDbText
0
TEXT
5
557
100
AcDbEntity
8
0-0
62
4
100
AcDbText
10
971.665
20
1228.093
30
0.0
40
9.750
41
0.800
50
0.000
1
260
100
AcDbText
0
TEXT
5
558
100
AcDbEntity
8
0-0
62
4
100
AcDbText
10
822.290
20
1228.093
30
0.0
40
9.750
41
0.800
50
0.000
1
45
100
AcDbText
0
TEXT
5
559
100
AcDbEntity
8
0-0
62
4
100
AcDbText
10
1205.853
20
820.518
30
0.0
40
9.750
41
0.800
50
90.000
1
30
100
AcDbText
0
TEXT
5
55a
100
AcDbEntity
8
0-0
62
4
100
AcDbText
10
1205.853
20
969.893
30
0.0
40
9.750
41
0.800
50
90.000
1
275
100
AcDbText
0
TEXT
5
55b
100
AcDbEntity
8
0-0
62
4
100
AcDbText
10
949.165
20
579.739
30
0.0
40
9.750
41
0.800
50
0.000
1
305
100
AcDbText
0
TEXT
5
55c
100
AcDbEntity
8
0-0
62
4
100
AcDbText
10
929.165
20
543.738
30
0.0
40
9.750
41
0.800
50
0.000
1
265
100
AcDbText
0
POINT
5
55d
8
0-0
62
  7
10
670.908
20
811.768
30
0.0
0
POINT
5
55e
8
0-0
62
  7
10
670.908
20
1116.768
30
0.0
0
POINT
5
55f
8
0-0
62
  7
10
704.302
20
811.768
30
0.0
0
POINT
5
560
8
0-0
62
  7
10
704.302
20
1076.768
30
0.0
0
POINT
5
561
8
0-0
62
  7
10
704.302
20
1116.768
30
0.0
0
POINT
5
562
8
0-0
62
  7
10
806.040
20
714.092
30
0.0
0
POINT
5
563
8
0-0
62
  7
10
1111.040
20
714.092
30
0.0
0
POINT
5
564
8
0-0
62
  7
10
806.040
20
745.101
30
0.0
0
POINT
5
565
8
0-0
62
  7
10
1071.040
20
745.101
30
0.0
0
POINT
5
566
8
0-0
62
  7
10
1111.040
20
745.101
30
0.0
0
POINT
5
567
8
0-0
62
  7
10
1494.688
20
811.768
30
0.0
0
POINT
5
568
8
0-0
62
  7
10
1494.688
20
1116.768
30
0.0
0
POINT
5
569
8
0-0
62
  7
10
806.040
20
1276.433
30
0.0
0
POINT
5
56a
8
0-0
62
  7
10
1111.040
20
1276.433
30
0.0
0
POINT
5
56b
8
0-0
62
  7
10
1111.040
20
1225.593
30
0.0
0
POINT
5
56c
8
0-0
62
  7
10
851.040
20
1225.593
30
0.0
0
POINT
5
56d
8
0-0
62
  7
10
806.040
20
1225.593
30
0.0
0
POINT
5
56e
8
0-0
62
  7
10
1208.353
20
811.768
30
0.0
0
POINT
5
56f
8
0-0
62
  7
10
1208.353
20
841.768
30
0.0
0
POINT
5
570
8
0-0
62
  7
10
1208.353
20
1116.768
30
0.0
0
POINT
5
571
8
0-0
62
  7
10
806.040
20
577.239
30
0.0
0
POINT
5
572
8
0-0
62
  7
10
1111.040
20
577.239
30
0.0
0
POINT
5
573
8
0-0
62
  7
10
806.040
20
541.238
30
0.0
0
POINT
5
574
8
0-0
62
  7
10
1071.040
20
541.238
30
0.0
0
ENDSEC
0
EOF
