0
SECTION
2
HEADER
  9
$EXTMIN
10
0
20
0
30
0
  9
$EXTMAX
10
1666.216
20
1299.482
30
0
  9
$LTSCALE
40
5.000
  9
$DIMSCALE
40
5.000
  9
$PDMODE
70
0
  9
$PDSIZE
40
40
0
ENDSEC
0
SECTION
2
TABLES
0
TABLE
2
LTYPE
70
9
0
LTYPE
5
1f4
2
CONTINUOUS
70
0
3
実線
72
65
73
0
40
0.0
0
LTYPE
5
1f5
2
DOT
70
0
3
--  --  --  --  --  --  --  --     
72
65
73
2
40
5.000
49
1.000
49
-4.000
0
LTYPE
5
1f6
2
DASHED
70
0
3
----    ----    ----    ----    
72
65
73
2
40
5.000
49
2.000
49
-3.000
0
LTYPE
5
1f7
2
DASHED2
70
0
3
------  ------  ------  ------ 
72
65
73
2
40
10.000
49
4.000
49
-6.000
0
LTYPE
5
1f8
2
CENTER
70
0
3
----- - ----- - ----- - ----- - 
72
65
73
4
40
9.000
49
6.000
49
-1.000
49
1.000
49
-1.000
0
LTYPE
5
1f9
2
CENTER2
70
0
3
----------  --  ----------  -- 
72
65
73
4
40
18.000
49
12.000
49
-2.000
49
2.000
49
-2.000
0
LTYPE
5
1fa
2
PHANTOM
70
0
3
--- - - --- - - --- - - --- - -
72
65
73
6
40
10.000
49
5.000
49
-1.000
49
1.000
49
-1.000
49
1.000
49
-1.000
0
LTYPE
5
1fb
2
PHANTOM2
70
0
3
--------  -  -  --------  -  -
72
65
73
6
40
16.000
49
6.000
49
-2.000
49
2.000
49
-2.000
49
2.000
49
-2.000
0
LTYPE
5
1fc
2
HIDDEN
70
0
3
-   -   -   -   -   -   -   -   
72
65
73
2
40
2.500
49
0.500
49
-2.000
0
ENDTAB
0
TABLE
2
STYLE
70
1
0
STYLE
5
1fd
100
AcDbSymbolTableRecord
100
AcDbTextStyleTableRecord
2
STANDARD
70
0
40
0.0
41
1.0
50
0.0
71
0
42
0.0
3
txt.shx
4
extfont.shx
0
STYLE
5
1fe
100
AcDbSymbolTableRecord
100
AcDbTextStyleTableRecord
2
TATEGAKI
70
4
40
0.0
41
1.0
50
0.0
71
0
42
0.0
3
txt.shx
4
extfont.shx
0
STYLE
5
1ff
100
AcDbSymbolTableRecord
100
AcDbTextStyleTableRecord
2
MT
70
0
40
0.0
41
1.0
50
0.0
71
0
42
0.0
3
MS Mincho
4

0
STYLE
5
200
100
AcDbSymbolTableRecord
100
AcDbTextStyleTableRecord
2
TMT
70
4
40
0.0
41
1.0
50
0.0
71
0
42
0.0
3
@MS Mincho
4

0
ENDTAB
0
TABLE
2
LAYER
5
1711
100
AcDbSymbolTable
70
10
0
LAYER
5
1712
100
AcDbSymbolTableRecord
100
AcDbLayerTableRecord
2
0
70
64
62
  7
  6
CONTINUOUS
0
LAYER
5
1713
100
AcDbSymbolTableRecord
100
AcDbLayerTableRecord
2
0-0
70
64
62
  7
  6
CONTINUOUS
0
LAYER
5
1714
100
AcDbSymbolTableRecord
100
AcDbLayerTableRecord
2
ADD_LINE
70
64
62
  -7
  6
CONTINUOUS
0
ENDTAB
0
ENDSEC
0
SECTION
2
ENTITIES
0
LINE
5
1715
8
0-0
6
CONTINUOUS
62
  7
10
859.459
20
769.009
30
0.0
11
1180.459
21
769.009
31
0.0
0
LINE
5
1716
8
0-0
6
CONTINUOUS
62
  7
10
1166.459
20
1074.009
30
0.0
11
1188.364
21
783.536
31
0.0
0
LINE
5
1717
8
0-0
6
CONTINUOUS
62
  7
10
916.459
20
1074.009
30
0.0
11
1166.459
21
1074.009
31
0.0
0
LINE
5
1718
8
0-0
6
CONTINUOUS
62
  7
10
916.459
20
1074.009
30
0.0
11
911.459
21
1039.009
31
0.0
0
LINE
5
1719
8
0-0
6
CONTINUOUS
62
  7
10
859.459
20
1039.009
30
0.0
11
911.459
21
1039.009
31
0.0
0
LINE
5
171a
8
0-0
6
CONTINUOUS
62
  7
10
859.459
20
1039.009
30
0.0
11
859.459
21
769.009
31
0.0
0
LINE
5
171b
8
0-0
6
CONTINUOUS
62
  7
10
946.459
20
1066.009
30
0.0
11
1121.459
21
1066.009
31
0.0
0
LINE
5
171c
8
0-0
6
CONTINUOUS
62
  7
10
946.459
20
1074.009
30
0.0
11
946.459
21
1066.009
31
0.0
0
LINE
5
171d
8
0-0
6
CONTINUOUS
62
  7
10
1121.459
20
1074.009
30
0.0
11
1121.459
21
1066.009
31
0.0
0
LINE
5
171e
8
0-0
6
CONTINUOUS
62
  7
10
1054.460
20
1047.009
30
0.0
11
1054.460
21
1066.009
31
0.0
0
LINE
5
171f
8
0-0
6
CONTINUOUS
62
  7
10
992.460
20
1046.009
30
0.0
11
1053.459
21
1046.009
31
0.0
0
LINE
5
1720
8
0-0
6
CONTINUOUS
62
  7
10
991.459
20
1047.009
30
0.0
11
991.459
21
1066.009
31
0.0
0
LINE
5
1721
8
0-0
6
CONTINUOUS
62
  7
10
1402.703
20
1074.009
30
0.0
11
1454.703
21
1074.009
31
0.0
0
LINE
5
1722
8
0-0
6
CONTINUOUS
62
  7
10
1454.703
20
1074.009
30
0.0
11
1482.703
21
769.009
31
0.0
0
LINE
5
1723
8
0-0
6
CONTINUOUS
62
  7
10
1412.703
20
769.009
30
0.0
11
1482.703
21
769.009
31
0.0
0
LINE
5
1724
8
0-0
6
CONTINUOUS
62
  7
10
1402.703
20
1074.009
30
0.0
11
1402.703
21
794.009
31
0.0
0
LINE
5
1725
8
0-0
6
CONTINUOUS
62
  7
10
1162.254
20
358.866
30
0.0
11
1179.162
21
357.105
31
0.0
0
LINE
5
1726
8
0-0
6
CONTINUOUS
62
  7
10
587.622
20
795.717
30
0.0
11
587.622
21
792.009
31
0.0
0
LINE
5
1727
8
0-0
6
CONTINUOUS
62
  7
10
583.857
20
776.950
30
0.0
11
581.744
21
772.988
31
0.0
0
LINE
5
1728
8
0-0
6
CONTINUOUS
62
  7
10
561.622
20
775.009
30
0.0
11
561.622
21
769.009
31
0.0
0
LINE
5
1729
8
0-0
6
CONTINUOUS
62
  7
10
571.622
20
778.925
30
0.0
11
561.622
21
775.009
31
0.0
0
LINE
5
172a
8
0-0
6
CONTINUOUS
62
  7
10
585.289
20
1066.009
30
0.0
11
585.289
21
1046.009
31
0.0
0
LINE
5
172b
8
0-0
6
CONTINUOUS
62
  7
10
612.621
20
1066.009
30
0.0
11
585.289
21
1066.009
31
0.0
0
LINE
5
172c
8
0-0
6
CONTINUOUS
62
  7
10
587.622
20
1046.009
30
0.0
11
585.289
21
1046.009
31
0.0
0
LINE
5
172d
8
0-0
6
CONTINUOUS
62
  7
10
587.622
20
1066.009
30
0.0
11
587.622
21
792.009
31
0.0
0
LINE
5
172e
8
0-0
6
CONTINUOUS
62
  7
10
571.622
20
1074.009
30
0.0
11
571.622
21
778.925
31
0.0
0
LINE
5
172f
8
0-0
6
CONTINUOUS
62
  7
10
590.289
20
1074.009
30
0.0
11
590.289
21
1066.009
31
0.0
0
LINE
5
1730
8
0-0
6
CONTINUOUS
62
  7
10
612.621
20
1074.009
30
0.0
11
571.622
21
1074.009
31
0.0
0
LINE
5
1731
8
0-0
6
CONTINUOUS
62
  7
10
608.857
20
776.950
30
0.0
11
606.744
21
772.988
31
0.0
0
LINE
5
1732
8
0-0
6
CONTINUOUS
62
  7
10
600.111
20
769.009
30
0.0
11
561.622
21
769.009
31
0.0
0
LINE
5
1733
8
0-0
6
CONTINUOUS
62
  7
10
612.621
20
1074.009
30
0.0
11
612.621
21
792.009
31
0.0
0
LINE
5
1734
8
ADD_LINE
6
HIDDEN
62
  3
10
806.757
20
826.009
30
0.0
11
1228.378
21
826.009
31
0.0
0
LINE
5
1735
8
0-0
6
CONTINUOUS
62
  7
10
1454.703
20
1296.982
30
0.0
11
1402.703
21
1296.982
31
0.0
0
LINE
5
1736
8
0-0
6
CONTINUOUS
62
  7
10
1454.703
20
1122.658
30
0.0
11
1454.703
21
1296.982
31
0.0
0
LINE
5
1737
8
0-0
6
CONTINUOUS
62
  7
10
1402.703
20
1122.658
30
0.0
11
1402.703
21
1296.982
31
0.0
0
LINE
5
1738
8
0-0
6
CONTINUOUS
62
  7
10
1166.459
20
1296.982
30
0.0
11
859.459
21
1296.982
31
0.0
0
LINE
5
1739
8
0-0
6
CONTINUOUS
62
  7
10
1166.459
20
1122.658
30
0.0
11
1166.459
21
1296.982
31
0.0
0
LINE
5
173a
8
0-0
6
CONTINUOUS
62
  7
10
859.459
20
1122.658
30
0.0
11
859.459
21
1296.982
31
0.0
0
LINE
5
173b
8
0-0
6
CONTINUOUS
62
  7
10
587.622
20
1296.982
30
0.0
11
571.622
21
1296.982
31
0.0
0
LINE
5
173c
8
0-0
6
CONTINUOUS
62
  7
10
587.622
20
1122.658
30
0.0
11
587.622
21
1296.982
31
0.0
0
LINE
5
173d
8
0-0
6
CONTINUOUS
62
  7
10
571.622
20
1122.658
30
0.0
11
571.622
21
1296.982
31
0.0
0
LINE
5
173e
8
0-0
6
CONTINUOUS
62
  7
10
859.459
20
1219.955
30
0.0
11
916.459
21
1219.955
31
0.0
0
LINE
5
173f
8
0-0
6
CONTINUOUS
62
  7
10
859.459
20
1122.658
30
0.0
11
859.459
21
1219.955
31
0.0
0
LINE
5
1740
8
0-0
6
CONTINUOUS
62
  7
10
916.459
20
1122.658
30
0.0
11
916.459
21
1219.955
31
0.0
0
LINE
5
1741
8
0-0
6
CONTINUOUS
62
  7
10
916.459
20
1219.955
30
0.0
11
1166.459
21
1219.955
31
0.0
0
LINE
5
1742
8
0-0
6
CONTINUOUS
62
  7
10
1166.459
20
1122.658
30
0.0
11
1166.459
21
1219.955
31
0.0
0
LINE
5
1743
8
0-0
6
CONTINUOUS
62
  7
10
859.459
20
619.955
30
0.0
11
1188.364
21
619.955
31
0.0
0
LINE
5
1744
8
0-0
6
CONTINUOUS
62
  7
10
859.459
20
721.306
30
0.0
11
859.459
21
619.955
31
0.0
0
LINE
5
1745
8
0-0
6
CONTINUOUS
62
  7
10
1188.364
20
721.306
30
0.0
11
1188.364
21
619.955
31
0.0
0
LINE
5
1746
8
0-0
6
CONTINUOUS
62
  7
10
1402.703
20
619.955
30
0.0
11
1482.703
21
619.955
31
0.0
0
LINE
5
1747
8
0-0
6
CONTINUOUS
62
  7
10
1402.703
20
721.306
30
0.0
11
1402.703
21
619.955
31
0.0
0
LINE
5
1748
8
0-0
6
CONTINUOUS
62
  7
10
1482.703
20
721.306
30
0.0
11
1482.703
21
619.955
31
0.0
0
LINE
5
1749
8
0-0
6
CONTINUOUS
62
  7
10
1666.216
20
1074.009
30
0.0
11
1666.216
21
769.009
31
0.0
0
LINE
5
174a
8
0-0
6
CONTINUOUS
62
  7
10
1560.811
20
1074.009
30
0.0
11
1666.216
21
1074.009
31
0.0
0
LINE
5
174b
8
0-0
6
CONTINUOUS
62
  7
10
1560.811
20
769.009
30
0.0
11
1666.216
21
769.009
31
0.0
0
LINE
5
174c
8
0-0
6
CONTINUOUS
62
  7
10
721.622
20
1074.009
30
0.0
11
721.622
21
769.009
31
0.0
0
LINE
5
174d
8
0-0
6
CONTINUOUS
62
  7
10
822.973
20
1074.009
30
0.0
11
721.622
21
1074.009
31
0.0
0
LINE
5
174e
8
0-0
6
CONTINUOUS
62
  7
10
822.973
20
769.009
30
0.0
11
721.622
21
769.009
31
0.0
0
LINE
5
174f
8
0-0
6
CONTINUOUS
62
  7
10
770.270
20
1074.009
30
0.0
11
770.270
21
1039.009
31
0.0
0
LINE
5
1750
8
0-0
6
CONTINUOUS
62
  7
10
822.973
20
1074.009
30
0.0
11
770.270
21
1074.009
31
0.0
0
LINE
5
1751
8
0-0
6
CONTINUOUS
62
  7
10
822.973
20
1039.009
30
0.0
11
770.270
21
1039.009
31
0.0
0
LINE
5
1752
8
ADD_LINE
6
HIDDEN
62
  3
10
859.459
20
435.621
30
0.0
11
859.459
21
490.925
31
0.0
0
LINE
5
1753
8
ADD_LINE
6
HIDDEN
62
  3
10
859.459
20
435.621
30
0.0
11
855.703
21
435.621
31
0.0
0
LINE
5
1754
8
ADD_LINE
6
HIDDEN
62
  3
10
859.459
20
435.621
30
0.0
11
863.013
21
435.621
31
0.0
0
LINE
5
1755
8
ADD_LINE
6
HIDDEN
62
  3
10
863.013
20
435.621
30
0.0
11
865.585
21
435.621
31
0.0
0
LINE
5
1756
8
ADD_LINE
6
HIDDEN
62
  3
10
859.459
20
435.621
30
0.0
11
859.459
21
412.954
31
0.0
0
LINE
5
1757
8
ADD_LINE
6
HIDDEN
62
  3
10
848.704
20
435.621
30
0.0
11
869.891
21
435.621
31
0.0
0
LINE
5
1758
8
ADD_LINE
6
HIDDEN
62
  3
10
1016.829
20
415.932
30
0.0
11
1014.262
21
342.409
31
0.0
0
LINE
5
1759
8
0-0
6
CONTINUOUS
62
  7
10
887.818
20
451.746
30
0.0
11
859.459
21
435.621
31
0.0
0
LINE
5
175a
8
0-0
6
CONTINUOUS
62
  7
10
859.459
20
435.621
30
0.0
11
859.459
21
421.622
31
0.0
0
LINE
5
175b
8
0-0
6
CONTINUOUS
62
  7
10
882.322
20
433.465
30
0.0
11
859.459
21
421.622
31
0.0
0
LINE
5
175c
8
ADD_LINE
6
HIDDEN
62
  3
10
859.459
20
435.621
30
0.0
11
855.703
21
435.621
31
0.0
0
LINE
5
175d
8
ADD_LINE
6
HIDDEN
62
  3
10
859.459
20
435.621
30
0.0
11
863.013
21
435.621
31
0.0
0
LINE
5
175e
8
ADD_LINE
6
HIDDEN
62
  3
10
863.013
20
435.621
30
0.0
11
865.585
21
435.621
31
0.0
0
LINE
5
175f
8
ADD_LINE
6
HIDDEN
62
  3
10
855.703
20
435.621
30
0.0
11
854.071
21
435.621
31
0.0
0
LINE
5
1760
8
0-0
6
CONTINUOUS
62
  7
10
1113.932
20
428.960
30
0.0
11
1114.741
21
429.401
31
0.0
0
LINE
5
1761
8
0-0
6
CONTINUOUS
62
  7
10
1114.741
20
429.401
30
0.0
11
1116.178
21
430.080
31
0.0
0
LINE
5
1762
8
0-0
6
CONTINUOUS
62
  7
10
1116.178
20
430.080
30
0.0
11
1117.656
21
430.676
31
0.0
0
LINE
5
1763
8
0-0
6
CONTINUOUS
62
  7
10
1117.656
20
430.676
30
0.0
11
1119.160
21
431.213
31
0.0
0
LINE
5
1764
8
0-0
6
CONTINUOUS
62
  7
10
1119.160
20
431.213
30
0.0
11
1120.039
21
431.505
31
0.0
0
LINE
5
1765
8
0-0
6
CONTINUOUS
62
  7
10
1120.039
20
431.505
30
0.0
11
1121.454
21
431.955
31
0.0
0
LINE
5
1766
8
0-0
6
CONTINUOUS
62
  7
10
1121.454
20
431.955
30
0.0
11
1123.904
21
432.686
31
0.0
0
LINE
5
1767
8
0-0
6
CONTINUOUS
62
  7
10
1123.904
20
432.686
30
0.0
11
1126.364
21
433.366
31
0.0
0
LINE
5
1768
8
0-0
6
CONTINUOUS
62
  7
10
1126.364
20
433.366
30
0.0
11
1128.838
21
434.002
31
0.0
0
LINE
5
1769
8
0-0
6
CONTINUOUS
62
  7
10
1128.838
20
434.002
30
0.0
11
1130.278
21
434.355
31
0.0
0
LINE
5
176a
8
0-0
6
CONTINUOUS
62
  7
10
1130.278
20
434.355
30
0.0
11
1131.334
21
434.606
31
0.0
0
LINE
5
176b
8
0-0
6
CONTINUOUS
62
  7
10
1131.334
20
434.606
30
0.0
11
1133.160
21
435.014
31
0.0
0
LINE
5
176c
8
0-0
6
CONTINUOUS
62
  7
10
1133.160
20
435.014
30
0.0
11
1134.994
21
435.375
31
0.0
0
LINE
5
176d
8
0-0
6
CONTINUOUS
62
  7
10
1134.994
20
435.375
30
0.0
11
1136.838
21
435.668
31
0.0
0
LINE
5
176e
8
0-0
6
CONTINUOUS
62
  7
10
1136.838
20
435.668
30
0.0
11
1137.911
21
435.799
31
0.0
0
LINE
5
176f
8
0-0
6
CONTINUOUS
62
  7
10
1137.911
20
435.799
30
0.0
11
1138.804
21
435.883
31
0.0
0
LINE
5
1770
8
0-0
6
CONTINUOUS
62
  7
10
1138.804
20
435.883
30
0.0
11
1140.349
21
435.983
31
0.0
0
LINE
5
1771
8
0-0
6
CONTINUOUS
62
  7
10
1140.349
20
435.983
30
0.0
11
1141.897
21
436.041
31
0.0
0
LINE
5
1772
8
0-0
6
CONTINUOUS
62
  7
10
1141.897
20
436.041
30
0.0
11
1143.449
21
436.072
31
0.0
0
LINE
5
1773
8
0-0
6
CONTINUOUS
62
  7
10
1143.449
20
436.072
30
0.0
11
1144.349
21
436.085
31
0.0
0
LINE
5
1774
8
0-0
6
CONTINUOUS
62
  7
10
1144.349
20
436.085
30
0.0
11
1148.365
21
435.875
31
0.0
0
LINE
5
1775
8
0-0
6
CONTINUOUS
62
  7
10
1148.365
20
435.875
30
0.0
11
1151.125
21
435.431
31
0.0
0
LINE
5
1776
8
0-0
6
CONTINUOUS
62
  7
10
1151.125
20
435.431
30
0.0
11
1152.785
21
435.042
31
0.0
0
LINE
5
1777
8
0-0
6
CONTINUOUS
62
  7
10
1152.785
20
435.042
30
0.0
11
1155.607
21
434.184
31
0.0
0
LINE
5
1778
8
0-0
6
CONTINUOUS
62
  7
10
1155.607
20
434.184
30
0.0
11
1158.389
21
433.133
31
0.0
0
LINE
5
1779
8
0-0
6
CONTINUOUS
62
  7
10
1158.389
20
433.133
30
0.0
11
1161.151
21
431.941
31
0.0
0
LINE
5
177a
8
0-0
6
CONTINUOUS
62
  7
10
1161.151
20
431.941
30
0.0
11
1162.749
21
431.204
31
0.0
0
LINE
5
177b
8
0-0
6
CONTINUOUS
62
  7
10
1162.749
20
431.204
30
0.0
11
1163.615
21
430.793
31
0.0
0
LINE
5
177c
8
0-0
6
CONTINUOUS
62
  7
10
1163.615
20
430.793
30
0.0
11
1165.083
21
430.045
31
0.0
0
LINE
5
177d
8
0-0
6
CONTINUOUS
62
  7
10
1165.083
20
430.045
30
0.0
11
1166.475
21
429.209
31
0.0
0
LINE
5
177e
8
0-0
6
CONTINUOUS
62
  7
10
1166.475
20
429.209
30
0.0
11
1167.745
21
428.239
31
0.0
0
LINE
5
177f
8
0-0
6
CONTINUOUS
62
  7
10
1167.745
20
428.239
30
0.0
11
1168.406
21
427.598
31
0.0
0
LINE
5
1780
8
0-0
6
CONTINUOUS
62
  7
10
1168.406
20
427.598
30
0.0
11
1168.770
21
427.185
31
0.0
0
LINE
5
1781
8
0-0
6
CONTINUOUS
62
  7
10
1168.770
20
427.185
30
0.0
11
1169.352
21
426.428
31
0.0
0
LINE
5
1782
8
0-0
6
CONTINUOUS
62
  7
10
1169.352
20
426.428
30
0.0
11
1169.895
21
425.631
31
0.0
0
LINE
5
1783
8
0-0
6
CONTINUOUS
62
  7
10
1169.895
20
425.631
30
0.0
11
1170.419
21
424.815
31
0.0
0
LINE
5
1784
8
0-0
6
CONTINUOUS
62
  7
10
1170.419
20
424.815
30
0.0
11
1170.721
21
424.341
31
0.0
0
LINE
5
1785
8
0-0
6
CONTINUOUS
62
  7
10
1170.721
20
424.341
30
0.0
11
1171.013
21
423.892
31
0.0
0
LINE
5
1786
8
0-0
6
CONTINUOUS
62
  7
10
1171.013
20
423.892
30
0.0
11
1171.519
21
423.122
31
0.0
0
LINE
5
1787
8
0-0
6
CONTINUOUS
62
  7
10
1171.519
20
423.122
30
0.0
11
1172.016
21
422.352
31
0.0
0
LINE
5
1788
8
0-0
6
CONTINUOUS
62
  7
10
1172.016
20
422.352
30
0.0
11
1172.494
21
421.572
31
0.0
0
LINE
5
1789
8
0-0
6
CONTINUOUS
62
  7
10
1172.494
20
421.572
30
0.0
11
1172.758
21
421.113
31
0.0
0
LINE
5
178a
8
0-0
6
CONTINUOUS
62
  7
10
1172.758
20
421.113
30
0.0
11
1172.991
21
420.682
31
0.0
0
LINE
5
178b
8
0-0
6
CONTINUOUS
62
  7
10
1172.991
20
420.682
30
0.0
11
1173.372
21
419.927
31
0.0
0
LINE
5
178c
8
0-0
6
CONTINUOUS
62
  7
10
1173.372
20
419.927
30
0.0
11
1173.735
21
419.160
31
0.0
0
LINE
5
178d
8
0-0
6
CONTINUOUS
62
  7
10
1173.735
20
419.160
30
0.0
11
1174.088
21
418.386
31
0.0
0
LINE
5
178e
8
0-0
6
CONTINUOUS
62
  7
10
1174.088
20
418.386
30
0.0
11
1174.292
21
417.937
31
0.0
0
LINE
5
178f
8
0-0
6
CONTINUOUS
62
  7
10
1174.292
20
417.937
30
0.0
11
1174.686
21
417.073
31
0.0
0
LINE
5
1790
8
0-0
6
CONTINUOUS
62
  7
10
1174.686
20
417.073
30
0.0
11
1175.356
21
415.581
31
0.0
0
LINE
5
1791
8
0-0
6
CONTINUOUS
62
  7
10
1175.356
20
415.581
30
0.0
11
1175.983
21
414.076
31
0.0
0
LINE
5
1792
8
0-0
6
CONTINUOUS
62
  7
10
1175.983
20
414.076
30
0.0
11
1176.532
21
412.546
31
0.0
0
LINE
5
1793
8
0-0
6
CONTINUOUS
62
  7
10
1176.532
20
412.546
30
0.0
11
1176.799
21
411.643
31
0.0
0
LINE
5
1794
8
0-0
6
CONTINUOUS
62
  7
10
1176.799
20
411.643
30
0.0
11
1176.909
21
411.217
31
0.0
0
LINE
5
1795
8
0-0
6
CONTINUOUS
62
  7
10
1176.909
20
411.217
30
0.0
11
1177.080
21
410.478
31
0.0
0
LINE
5
1796
8
0-0
6
CONTINUOUS
62
  7
10
1177.080
20
410.478
30
0.0
11
1177.238
21
409.733
31
0.0
0
LINE
5
1797
8
0-0
6
CONTINUOUS
62
  7
10
1177.238
20
409.733
30
0.0
11
1177.391
21
408.988
31
0.0
0
LINE
5
1798
8
0-0
6
CONTINUOUS
62
  7
10
1177.391
20
408.988
30
0.0
11
1177.483
21
408.556
31
0.0
0
LINE
5
1799
8
0-0
6
CONTINUOUS
62
  7
10
1177.483
20
408.556
30
0.0
11
1177.578
21
408.125
31
0.0
0
LINE
5
179a
8
0-0
6
CONTINUOUS
62
  7
10
1177.578
20
408.125
30
0.0
11
1177.747
21
407.383
31
0.0
0
LINE
5
179b
8
0-0
6
CONTINUOUS
62
  7
10
1177.747
20
407.383
30
0.0
11
1177.917
21
406.642
31
0.0
0
LINE
5
179c
8
0-0
6
CONTINUOUS
62
  7
10
1177.917
20
406.642
30
0.0
11
1178.079
21
405.900
31
0.0
0
LINE
5
179d
8
0-0
6
CONTINUOUS
62
  7
10
1178.079
20
405.900
30
0.0
11
1178.167
21
405.468
31
0.0
0
LINE
5
179e
8
0-0
6
CONTINUOUS
62
  7
10
1178.167
20
405.468
30
0.0
11
1178.247
21
405.043
31
0.0
0
LINE
5
179f
8
0-0
6
CONTINUOUS
62
  7
10
1178.247
20
405.043
30
0.0
11
1178.373
21
404.308
31
0.0
0
LINE
5
17a0
8
0-0
6
CONTINUOUS
62
  7
10
1178.373
20
404.308
30
0.0
11
1178.487
21
403.570
31
0.0
0
LINE
5
17a1
8
0-0
6
CONTINUOUS
62
  7
10
1178.487
20
403.570
30
0.0
11
1178.592
21
402.831
31
0.0
0
LINE
5
17a2
8
0-0
6
CONTINUOUS
62
  7
10
1178.592
20
402.831
30
0.0
11
1178.652
21
402.402
31
0.0
0
LINE
5
17a3
8
0-0
6
CONTINUOUS
62
  7
10
1178.652
20
402.402
30
0.0
11
1178.710
21
401.976
31
0.0
0
LINE
5
17a4
8
0-0
6
CONTINUOUS
62
  7
10
1178.710
20
401.976
30
0.0
11
1178.808
21
401.242
31
0.0
0
LINE
5
17a5
8
0-0
6
CONTINUOUS
62
  7
10
1178.808
20
401.242
30
0.0
11
1178.902
21
400.507
31
0.0
0
LINE
5
17a6
8
0-0
6
CONTINUOUS
62
  7
10
1178.902
20
400.507
30
0.0
11
1178.990
21
399.772
31
0.0
0
LINE
5
17a7
8
0-0
6
CONTINUOUS
62
  7
10
1178.990
20
399.772
30
0.0
11
1179.037
21
399.345
31
0.0
0
LINE
5
17a8
8
0-0
6
CONTINUOUS
62
  7
10
1179.037
20
399.345
30
0.0
11
1179.162
21
398.078
31
0.0
0
LINE
5
17a9
8
0-0
6
CONTINUOUS
62
  7
10
1179.162
20
398.078
30
0.0
11
1179.334
21
395.888
31
0.0
0
LINE
5
17aa
8
0-0
6
CONTINUOUS
62
  7
10
1179.334
20
395.888
30
0.0
11
1179.474
21
393.694
31
0.0
0
LINE
5
17ab
8
0-0
6
CONTINUOUS
62
  7
10
1179.474
20
393.694
30
0.0
11
1179.609
21
391.500
31
0.0
0
LINE
5
17ac
8
0-0
6
CONTINUOUS
62
  7
10
1179.609
20
391.500
30
0.0
11
1179.696
21
390.228
31
0.0
0
LINE
5
17ad
8
0-0
6
CONTINUOUS
62
  7
10
1179.696
20
390.228
30
0.0
11
1179.757
21
389.426
31
0.0
0
LINE
5
17ae
8
0-0
6
CONTINUOUS
62
  7
10
1179.757
20
389.426
30
0.0
11
1179.867
21
388.043
31
0.0
0
LINE
5
17af
8
0-0
6
CONTINUOUS
62
  7
10
1179.867
20
388.043
30
0.0
11
1179.973
21
386.661
31
0.0
0
LINE
5
17b0
8
0-0
6
CONTINUOUS
62
  7
10
1179.973
20
386.661
30
0.0
11
1180.063
21
385.278
31
0.0
0
LINE
5
17b1
8
0-0
6
CONTINUOUS
62
  7
10
1180.063
20
385.278
30
0.0
11
1180.103
21
384.475
31
0.0
0
LINE
5
17b2
8
0-0
6
CONTINUOUS
62
  7
10
1180.103
20
384.475
30
0.0
11
1180.120
21
384.009
31
0.0
0
LINE
5
17b3
8
0-0
6
CONTINUOUS
62
  7
10
1180.120
20
384.009
30
0.0
11
1180.142
21
383.206
31
0.0
0
LINE
5
17b4
8
0-0
6
CONTINUOUS
62
  7
10
1180.142
20
383.206
30
0.0
11
1180.154
21
382.402
31
0.0
0
LINE
5
17b5
8
0-0
6
CONTINUOUS
62
  7
10
1180.154
20
382.402
30
0.0
11
1180.158
21
381.598
31
0.0
0
LINE
5
17b6
8
0-0
6
CONTINUOUS
62
  7
10
1180.158
20
381.598
30
0.0
11
1180.156
21
381.131
31
0.0
0
LINE
5
17b7
8
0-0
6
CONTINUOUS
62
  7
10
1180.156
20
381.131
30
0.0
11
1180.154
21
380.711
31
0.0
0
LINE
5
17b8
8
0-0
6
CONTINUOUS
62
  7
10
1180.154
20
380.711
30
0.0
11
1180.146
21
379.987
31
0.0
0
LINE
5
17b9
8
0-0
6
CONTINUOUS
62
  7
10
1180.146
20
379.987
30
0.0
11
1180.138
21
379.262
31
0.0
0
LINE
5
17ba
8
0-0
6
CONTINUOUS
62
  7
10
1180.138
20
379.262
30
0.0
11
1180.130
21
378.538
31
0.0
0
LINE
5
17bb
8
0-0
6
CONTINUOUS
62
  7
10
1180.130
20
378.538
30
0.0
11
1180.128
21
378.118
31
0.0
0
LINE
5
17bc
8
0-0
6
CONTINUOUS
62
  7
10
1180.128
20
378.118
30
0.0
11
1180.127
21
377.698
31
0.0
0
LINE
5
17bd
8
0-0
6
CONTINUOUS
62
  7
10
1180.127
20
377.698
30
0.0
11
1180.128
21
376.972
31
0.0
0
LINE
5
17be
8
0-0
6
CONTINUOUS
62
  7
10
1180.128
20
376.972
30
0.0
11
1180.130
21
376.247
31
0.0
0
LINE
5
17bf
8
0-0
6
CONTINUOUS
62
  7
10
1180.130
20
376.247
30
0.0
11
1180.132
21
375.522
31
0.0
0
LINE
5
17c0
8
0-0
6
CONTINUOUS
62
  7
10
1180.132
20
375.522
30
0.0
11
1180.132
21
375.101
31
0.0
0
LINE
5
17c1
8
0-0
6
CONTINUOUS
62
  7
10
1180.132
20
375.101
30
0.0
11
1180.100
21
372.590
31
0.0
0
LINE
5
17c2
8
0-0
6
CONTINUOUS
62
  7
10
1180.100
20
372.590
30
0.0
11
1179.941
21
368.262
31
0.0
0
LINE
5
17c3
8
0-0
6
CONTINUOUS
62
  7
10
1179.941
20
368.262
30
0.0
11
1179.681
21
363.936
31
0.0
0
LINE
5
17c4
8
0-0
6
CONTINUOUS
62
  7
10
1179.681
20
363.936
30
0.0
11
1179.361
21
359.613
31
0.0
0
LINE
5
17c5
8
0-0
6
CONTINUOUS
62
  7
10
1179.361
20
359.613
30
0.0
11
1179.162
21
357.105
31
0.0
0
LINE
5
17c6
8
0-0
6
CONTINUOUS
62
  7
10
1154.939
20
420.850
30
0.0
11
1155.189
21
420.725
31
0.0
0
LINE
5
17c7
8
0-0
6
CONTINUOUS
62
  7
10
1155.189
20
420.725
30
0.0
11
1156.061
21
420.159
31
0.0
0
LINE
5
17c8
8
0-0
6
CONTINUOUS
62
  7
10
1156.061
20
420.159
30
0.0
11
1156.533
21
419.786
31
0.0
0
LINE
5
17c9
8
0-0
6
CONTINUOUS
62
  7
10
1156.533
20
419.786
30
0.0
11
1156.967
21
419.394
31
0.0
0
LINE
5
17ca
8
0-0
6
CONTINUOUS
62
  7
10
1156.967
20
419.394
30
0.0
11
1157.654
21
418.657
31
0.0
0
LINE
5
17cb
8
0-0
6
CONTINUOUS
62
  7
10
1157.654
20
418.657
30
0.0
11
1158.269
21
417.858
31
0.0
0
LINE
5
17cc
8
0-0
6
CONTINUOUS
62
  7
10
1158.269
20
417.858
30
0.0
11
1158.817
21
417.010
31
0.0
0
LINE
5
17cd
8
0-0
6
CONTINUOUS
62
  7
10
1158.817
20
417.010
30
0.0
11
1159.107
21
416.502
31
0.0
0
LINE
5
17ce
8
0-0
6
CONTINUOUS
62
  7
10
1159.107
20
416.502
30
0.0
11
1159.332
21
416.075
31
0.0
0
LINE
5
17cf
8
0-0
6
CONTINUOUS
62
  7
10
1159.332
20
416.075
30
0.0
11
1159.693
21
415.327
31
0.0
0
LINE
5
17d0
8
0-0
6
CONTINUOUS
62
  7
10
1159.693
20
415.327
30
0.0
11
1160.022
21
414.566
31
0.0
0
LINE
5
17d1
8
0-0
6
CONTINUOUS
62
  7
10
1160.022
20
414.566
30
0.0
11
1160.323
21
413.794
31
0.0
0
LINE
5
17d2
8
0-0
6
CONTINUOUS
62
  7
10
1160.323
20
413.794
30
0.0
11
1160.487
21
413.342
31
0.0
0
LINE
5
17d3
8
0-0
6
CONTINUOUS
62
  7
10
1160.487
20
413.342
30
0.0
11
1160.636
21
412.911
31
0.0
0
LINE
5
17d4
8
0-0
6
CONTINUOUS
62
  7
10
1160.636
20
412.911
30
0.0
11
1160.881
21
412.165
31
0.0
0
LINE
5
17d5
8
0-0
6
CONTINUOUS
62
  7
10
1160.881
20
412.165
30
0.0
11
1161.114
21
411.415
31
0.0
0
LINE
5
17d6
8
0-0
6
CONTINUOUS
62
  7
10
1161.114
20
411.415
30
0.0
11
1161.341
21
410.661
31
0.0
0
LINE
5
17d7
8
0-0
6
CONTINUOUS
62
  7
10
1161.341
20
410.661
30
0.0
11
1161.470
21
410.223
31
0.0
0
LINE
5
17d8
8
0-0
6
CONTINUOUS
62
  7
10
1161.470
20
410.223
30
0.0
11
1161.596
21
409.795
31
0.0
0
LINE
5
17d9
8
0-0
6
CONTINUOUS
62
  7
10
1161.596
20
409.795
30
0.0
11
1161.807
21
409.055
31
0.0
0
LINE
5
17da
8
0-0
6
CONTINUOUS
62
  7
10
1161.807
20
409.055
30
0.0
11
1162.002
21
408.311
31
0.0
0
LINE
5
17db
8
0-0
6
CONTINUOUS
62
  7
10
1162.002
20
408.311
30
0.0
11
1162.171
21
407.563
31
0.0
0
LINE
5
17dc
8
0-0
6
CONTINUOUS
62
  7
10
1162.171
20
407.563
30
0.0
11
1162.253
21
407.126
31
0.0
0
LINE
5
17dd
8
0-0
6
CONTINUOUS
62
  7
10
1162.253
20
407.126
30
0.0
11
1162.319
21
406.702
31
0.0
0
LINE
5
17de
8
0-0
6
CONTINUOUS
62
  7
10
1162.319
20
406.702
30
0.0
11
1162.413
21
405.968
31
0.0
0
LINE
5
17df
8
0-0
6
CONTINUOUS
62
  7
10
1162.413
20
405.968
30
0.0
11
1162.494
21
405.231
31
0.0
0
LINE
5
17e0
8
0-0
6
CONTINUOUS
62
  7
10
1162.494
20
405.231
30
0.0
11
1162.580
21
404.495
31
0.0
0
LINE
5
17e1
8
0-0
6
CONTINUOUS
62
  7
10
1162.580
20
404.495
30
0.0
11
1162.638
21
404.069
31
0.0
0
LINE
5
17e2
8
0-0
6
CONTINUOUS
62
  7
10
1162.638
20
404.069
30
0.0
11
1162.707
21
403.639
31
0.0
0
LINE
5
17e3
8
0-0
6
CONTINUOUS
62
  7
10
1162.707
20
403.639
30
0.0
11
1162.843
21
402.900
31
0.0
0
LINE
5
17e4
8
0-0
6
CONTINUOUS
62
  7
10
1162.843
20
402.900
30
0.0
11
1162.987
21
402.162
31
0.0
0
LINE
5
17e5
8
0-0
6
CONTINUOUS
62
  7
10
1162.987
20
402.162
30
0.0
11
1163.127
21
401.424
31
0.0
0
LINE
5
17e6
8
0-0
6
CONTINUOUS
62
  7
10
1163.127
20
401.424
30
0.0
11
1163.200
21
400.995
31
0.0
0
LINE
5
17e7
8
0-0
6
CONTINUOUS
62
  7
10
1163.200
20
400.995
30
0.0
11
1163.264
21
400.572
31
0.0
0
LINE
5
17e8
8
0-0
6
CONTINUOUS
62
  7
10
1163.264
20
400.572
30
0.0
11
1163.356
21
399.840
31
0.0
0
LINE
5
17e9
8
0-0
6
CONTINUOUS
62
  7
10
1163.356
20
399.840
30
0.0
11
1163.433
21
399.105
31
0.0
0
LINE
5
17ea
8
0-0
6
CONTINUOUS
62
  7
10
1163.433
20
399.105
30
0.0
11
1163.502
21
398.370
31
0.0
0
LINE
5
17eb
8
0-0
6
CONTINUOUS
62
  7
10
1163.502
20
398.370
30
0.0
11
1163.541
21
397.943
31
0.0
0
LINE
5
17ec
8
0-0
6
CONTINUOUS
62
  7
10
1163.541
20
397.943
30
0.0
11
1163.662
21
396.668
31
0.0
0
LINE
5
17ed
8
0-0
6
CONTINUOUS
62
  7
10
1163.662
20
396.668
30
0.0
11
1163.881
21
394.472
31
0.0
0
LINE
5
17ee
8
0-0
6
CONTINUOUS
62
  7
10
1163.881
20
394.472
30
0.0
11
1164.095
21
392.276
31
0.0
0
LINE
5
17ef
8
0-0
6
CONTINUOUS
62
  7
10
1164.095
20
392.276
30
0.0
11
1164.281
21
390.081
31
0.0
0
LINE
5
17f0
8
0-0
6
CONTINUOUS
62
  7
10
1164.281
20
390.081
30
0.0
11
1164.366
21
388.808
31
0.0
0
LINE
5
17f1
8
0-0
6
CONTINUOUS
62
  7
10
1164.366
20
388.808
30
0.0
11
1164.507
21
384.639
31
0.0
0
LINE
5
17f2
8
0-0
6
CONTINUOUS
62
  7
10
1164.507
20
384.639
30
0.0
11
1164.308
21
377.446
31
0.0
0
LINE
5
17f3
8
0-0
6
CONTINUOUS
62
  7
10
1164.308
20
377.446
30
0.0
11
1163.690
21
370.247
31
0.0
0
LINE
5
17f4
8
0-0
6
CONTINUOUS
62
  7
10
1163.690
20
370.247
30
0.0
11
1162.815
21
363.044
31
0.0
0
LINE
5
17f5
8
0-0
6
CONTINUOUS
62
  7
10
1162.815
20
363.044
30
0.0
11
1162.254
21
358.866
31
0.0
0
LINE
5
17f6
8
ADD_LINE
6
HIDDEN
62
  3
10
1002.110
20
394.610
30
0.0
11
857.077
21
394.610
31
0.0
0
LINE
5
17f7
8
ADD_LINE
6
HIDDEN
62
  3
10
1002.110
20
394.610
30
0.0
11
1072.253
21
394.610
31
0.0
0
LINE
5
17f8
8
0-0
6
CONTINUOUS
62
  7
10
1275.781
20
357.105
30
0.0
11
1275.781
21
436.853
31
0.0
0
LINE
5
17f9
8
0-0
6
CONTINUOUS
62
  7
10
1205.344
20
357.105
30
0.0
11
1275.781
21
357.105
31
0.0
0
LINE
5
17fa
8
0-0
6
CONTINUOUS
62
  7
10
1205.344
20
436.853
30
0.0
11
1275.781
21
436.853
31
0.0
0
ARC
5
17fb
8
0-0
6
CONTINUOUS
62
  7
10
1172.788
20
782.597
30
0.0
40
15.604
50
299.446808
51
3.448502
0
CIRCLE
5
17fc
8
0-0
6
CONTINUOUS
62
  7
10
979.459
20
1052.009
30
0.0
40
3.000
0
CIRCLE
5
17fd
8
0-0
6
CONTINUOUS
62
  7
10
1062.459
20
1052.009
30
0.0
40
3.000
0
ARC
5
17fe
8
0-0
6
CONTINUOUS
62
  7
10
1053.459
20
1047.009
30
0.0
40
1.000
50
270.000000
51
0.000000
0
ARC
5
17ff
8
0-0
6
CONTINUOUS
62
  7
10
992.460
20
1047.009
30
0.0
40
1.000
50
180.000000
51
270.000000
0
CIRCLE
5
1800
8
0-0
6
CONTINUOUS
62
  7
10
1123.364
20
884.009
30
0.0
40
3.000
0
CIRCLE
5
1801
8
0-0
6
CONTINUOUS
62
  7
10
1123.364
20
854.009
30
0.0
40
3.000
0
ARC
5
1802
8
0-0
6
CONTINUOUS
62
  7
10
1441.976
20
795.219
30
0.0
40
39.292
50
181.763855
51
221.839050
0
ARC
5
1803
8
0-0
6
CONTINUOUS
62
  7
10
549.667
20
793.498
30
0.0
40
37.984
50
334.173828
51
357.753815
0
ARC
5
1804
8
0-0
6
CONTINUOUS
62
  7
10
573.574
20
779.088
30
0.0
40
10.195
50
278.675385
51
323.252075
0
ARC
5
1805
8
0-0
6
CONTINUOUS
62
  7
10
598.574
20
779.088
30
0.0
40
10.195
50
278.672577
51
323.252075
0
ARC
5
1806
8
0-0
6
CONTINUOUS
62
  7
10
574.666
20
793.498
30
0.0
40
37.984
50
334.173828
51
357.753357
0
CIRCLE
5
1807
8
ADD_LINE
6
HIDDEN
62
  3
10
859.459
20
435.621
30
0.0
40
3.000
0
CIRCLE
5
1808
8
ADD_LINE
6
HIDDEN
62
  3
10
859.459
20
435.621
30
0.0
40
3.000
0
ARC
5
1809
8
0-0
6
CONTINUOUS
62
  7
10
897.017
20
439.504
30
0.0
40
15.314
50
42.690552
51
126.920761
0
ARC
5
180a
8
0-0
6
CONTINUOUS
62
  7
10
896.084
20
414.872
30
0.0
40
23.132
50
47.123047
51
126.507172
0
CIRCLE
5
180b
8
ADD_LINE
6
HIDDEN
62
  3
10
859.459
20
435.621
30
0.0
40
3.000
0
ARC
5
180c
8
0-0
6
CONTINUOUS
62
  7
10
1058.952
20
678.328
30
0.0
40
273.659
50
236.591248
51
250.298019
0
ARC
5
180d
8
0-0
6
CONTINUOUS
62
  7
10
1084.807
20
713.489
30
0.0
40
330.544
50
238.443939
51
246.957779
0
ARC
5
180e
8
0-0
6
CONTINUOUS
62
  7
10
1035.895
20
572.133
30
0.0
40
163.059
50
278.837341
51
298.592651
0
ARC
5
180f
8
0-0
6
CONTINUOUS
62
  7
10
1024.146
20
642.581
30
0.0
40
248.101
50
268.138062
51
292.948303
0
ARC
5
1810
8
0-0
6
CONTINUOUS
62
  7
10
1167.015
20
303.708
30
0.0
40
119.658
50
99.298904
51
112.678116
0
ARC
5
1811
8
0-0
6
CONTINUOUS
62
  7
10
1149.771
20
409.274
30
0.0
40
12.692
50
65.938141
51
99.479996
0
ARC
5
1812
8
0-0
6
CONTINUOUS
62
  7
10
1023.903
20
559.287
30
0.0
40
164.863
50
245.459442
51
267.281708
0
ARC
5
1813
8
0-0
6
CONTINUOUS
62
  7
10
1027.665
20
566.093
30
0.0
40
157.670
50
247.250427
51
271.579346
0
ARC
5
1814
8
0-0
6
CONTINUOUS
62
  7
10
1036.272
20
526.628
30
0.0
40
118.222
50
267.934265
51
282.046143
0
CIRCLE
5
1815
8
ADD_LINE
6
HIDDEN
62
  3
10
1016.082
20
394.610
30
0.0
40
3.000
0
TEXT
5
1816
100
AcDbEntity
8
0-0
62
7
100
AcDbText
10
1422.453
20
1299.482
30
0.0
40
9.750
41
0.800
50
0.000
1
52
100
AcDbText
0
TEXT
5
1817
100
AcDbEntity
8
0-0
62
7
100
AcDbText
10
1003.584
20
1299.482
30
0.0
40
9.750
41
0.800
50
0.000
1
307
100
AcDbText
0
TEXT
5
1818
100
AcDbEntity
8
0-0
62
7
100
AcDbText
10
573.372
20
1299.482
30
0.0
40
9.750
41
0.800
50
0.000
1
16
100
AcDbText
0
TEXT
5
1819
100
AcDbEntity
8
0-0
62
7
100
AcDbText
10
881.709
20
1222.455
30
0.0
40
9.750
41
0.800
50
0.000
1
57
100
AcDbText
0
TEXT
5
181a
100
AcDbEntity
8
0-0
62
7
100
AcDbText
10
1032.084
20
1222.455
30
0.0
40
9.750
41
0.800
50
0.000
1
250
100
AcDbText
0
TEXT
5
181b
100
AcDbEntity
8
0-0
62
7
100
AcDbText
10
1014.537
20
622.455
30
0.0
40
9.750
41
0.800
50
0.000
1
329
100
AcDbText
0
TEXT
5
181c
100
AcDbEntity
8
0-0
62
7
100
AcDbText
10
1436.453
20
622.455
30
0.0
40
9.750
41
0.800
50
0.000
1
80
100
AcDbText
0
TEXT
5
181d
100
AcDbEntity
8
0-0
62
7
100
AcDbText
10
1663.716
20
912.134
30
0.0
40
9.750
41
0.800
50
90.000
1
305
100
AcDbText
0
TEXT
5
181e
100
AcDbEntity
8
0-0
62
7
100
AcDbText
10
719.122
20
912.134
30
0.0
40
9.750
41
0.800
50
90.000
1
305
100
AcDbText
0
TEXT
5
181f
100
AcDbEntity
8
0-0
62
7
100
AcDbText
10
767.770
20
1050.259
30
0.0
40
9.750
41
0.800
50
90.000
1
35
100
AcDbText
0
TEXT
5
1820
100
AcDbEntity
8
0-0
62
7
100
AcDbText
10
1273.281
20
390.729
30
0.0
40
9.750
41
0.800
50
90.000
1
80
100
AcDbText
0
POINT
5
1821
8
0-0
62
  7
10
1454.703
20
1296.982
30
0.0
0
POINT
5
1822
8
0-0
62
  7
10
1402.703
20
1296.982
30
0.0
0
POINT
5
1823
8
0-0
62
  7
10
1166.459
20
1296.982
30
0.0
0
POINT
5
1824
8
0-0
62
  7
10
859.459
20
1296.982
30
0.0
0
POINT
5
1825
8
0-0
62
  7
10
587.622
20
1296.982
30
0.0
0
POINT
5
1826
8
0-0
62
  7
10
571.622
20
1296.982
30
0.0
0
POINT
5
1827
8
0-0
62
  7
10
859.459
20
1219.955
30
0.0
0
POINT
5
1828
8
0-0
62
  7
10
916.459
20
1219.955
30
0.0
0
POINT
5
1829
8
0-0
62
  7
10
1166.459
20
1219.955
30
0.0
0
POINT
5
182a
8
0-0
62
  7
10
859.459
20
619.955
30
0.0
0
POINT
5
182b
8
0-0
62
  7
10
1188.364
20
619.955
30
0.0
0
POINT
5
182c
8
0-0
62
  7
10
1402.703
20
619.955
30
0.0
0
POINT
5
182d
8
0-0
62
  7
10
1482.703
20
619.955
30
0.0
0
POINT
5
182e
8
0-0
62
  7
10
1666.216
20
1074.009
30
0.0
0
POINT
5
182f
8
0-0
62
  7
10
1666.216
20
769.009
30
0.0
0
POINT
5
1830
8
0-0
62
  7
10
721.622
20
1074.009
30
0.0
0
POINT
5
1831
8
0-0
62
  7
10
721.622
20
769.009
30
0.0
0
POINT
5
1832
8
0-0
62
  7
10
770.270
20
1074.009
30
0.0
0
POINT
5
1833
8
0-0
62
  7
10
770.270
20
1039.009
30
0.0
0
POINT
5
1834
8
0-0
62
  7
10
1275.781
20
357.105
30
0.0
0
POINT
5
1835
8
0-0
62
  7
10
1275.781
20
436.853
30
0.0
0
ENDSEC
0
EOF
