0
SECTION
2
HEADER
  9
$EXTMIN
10
0
20
0
30
0
  9
$EXTMAX
10
3902.478
20
1351.163
30
0
  9
$LTSCALE
40
5.000
  9
$DIMSCALE
40
5.000
  9
$PDMODE
70
0
  9
$PDSIZE
40
40
0
ENDSEC
0
SECTION
2
TABLES
0
TABLE
2
LTYPE
70
9
0
LTYPE
5
1f4
2
CONTINUOUS
70
0
3
実線
72
65
73
0
40
0.0
0
LTYPE
5
1f5
2
DOT
70
0
3
--  --  --  --  --  --  --  --     
72
65
73
2
40
5.000
49
1.000
49
-4.000
0
LTYPE
5
1f6
2
DASHED
70
0
3
----    ----    ----    ----    
72
65
73
2
40
5.000
49
2.000
49
-3.000
0
LTYPE
5
1f7
2
DASHED2
70
0
3
------  ------  ------  ------ 
72
65
73
2
40
10.000
49
4.000
49
-6.000
0
LTYPE
5
1f8
2
CENTER
70
0
3
----- - ----- - ----- - ----- - 
72
65
73
4
40
9.000
49
6.000
49
-1.000
49
1.000
49
-1.000
0
LTYPE
5
1f9
2
CENTER2
70
0
3
----------  --  ----------  -- 
72
65
73
4
40
18.000
49
12.000
49
-2.000
49
2.000
49
-2.000
0
LTYPE
5
1fa
2
PHANTOM
70
0
3
--- - - --- - - --- - - --- - -
72
65
73
6
40
10.000
49
5.000
49
-1.000
49
1.000
49
-1.000
49
1.000
49
-1.000
0
LTYPE
5
1fb
2
PHANTOM2
70
0
3
--------  -  -  --------  -  -
72
65
73
6
40
16.000
49
6.000
49
-2.000
49
2.000
49
-2.000
49
2.000
49
-2.000
0
LTYPE
5
1fc
2
HIDDEN
70
0
3
-   -   -   -   -   -   -   -   
72
65
73
2
40
2.500
49
0.500
49
-2.000
0
ENDTAB
0
TABLE
2
STYLE
70
1
0
STYLE
5
1fd
100
AcDbSymbolTableRecord
100
AcDbTextStyleTableRecord
2
STANDARD
70
0
40
0.0
41
1.0
50
0.0
71
0
42
0.0
3
txt.shx
4
extfont.shx
0
STYLE
5
1fe
100
AcDbSymbolTableRecord
100
AcDbTextStyleTableRecord
2
TATEGAKI
70
4
40
0.0
41
1.0
50
0.0
71
0
42
0.0
3
txt.shx
4
extfont.shx
0
STYLE
5
1ff
100
AcDbSymbolTableRecord
100
AcDbTextStyleTableRecord
2
MT
70
0
40
0.0
41
1.0
50
0.0
71
0
42
0.0
3
MS Mincho
4

0
STYLE
5
200
100
AcDbSymbolTableRecord
100
AcDbTextStyleTableRecord
2
TMT
70
4
40
0.0
41
1.0
50
0.0
71
0
42
0.0
3
@MS Mincho
4

0
ENDTAB
0
TABLE
2
LAYER
5
228d
100
AcDbSymbolTable
70
10
0
LAYER
5
228e
100
AcDbSymbolTableRecord
100
AcDbLayerTableRecord
2
0
70
64
62
  7
  6
CONTINUOUS
0
LAYER
5
228f
100
AcDbSymbolTableRecord
100
AcDbLayerTableRecord
2
0-0
70
64
62
  7
  6
CONTINUOUS
0
LAYER
5
2290
100
AcDbSymbolTableRecord
100
AcDbLayerTableRecord
2
ADD_LINE
70
64
62
  -7
  6
CONTINUOUS
0
ENDTAB
0
ENDSEC
0
SECTION
2
ENTITIES
0
LINE
5
2291
8
0-0
6
CONTINUOUS
62
  7
10
753.408
20
1089.744
30
0.0
11
798.408
21
1089.744
31
0.0
0
LINE
5
2292
8
0-0
6
CONTINUOUS
62
  7
10
798.408
20
1129.744
30
0.0
11
798.408
21
1089.744
31
0.0
0
LINE
5
2293
8
0-0
6
CONTINUOUS
62
  7
10
798.408
20
1129.744
30
0.0
11
1018.408
21
1129.744
31
0.0
0
LINE
5
2294
8
0-0
6
CONTINUOUS
62
  7
10
753.408
20
1089.744
30
0.0
11
753.408
21
839.744
31
0.0
0
LINE
5
2295
8
0-0
6
CONTINUOUS
62
  7
10
751.408
20
823.744
30
0.0
11
841.408
21
823.744
31
0.0
0
LINE
5
2296
8
0-0
6
CONTINUOUS
62
  7
10
1059.408
20
476.983
30
0.0
11
1059.408
21
441.041
31
0.0
0
LINE
5
2297
8
0-0
6
CONTINUOUS
62
  7
10
948.419
20
384.139
30
0.0
11
953.875
21
386.904
31
0.0
0
LINE
5
2298
8
0-0
6
CONTINUOUS
62
  7
10
1042.408
20
390.041
30
0.0
11
1059.408
21
390.041
31
0.0
0
LINE
5
2299
8
0-0
6
CONTINUOUS
62
  7
10
1059.408
20
441.041
30
0.0
11
1059.408
21
390.041
31
0.0
0
LINE
5
229a
8
0-0
6
CONTINUOUS
62
  7
10
1042.408
20
432.852
30
0.0
11
1042.408
21
390.041
31
0.0
0
LINE
5
229b
8
0-0
6
CONTINUOUS
62
  7
10
1042.408
20
422.041
30
0.0
11
1059.408
21
422.041
31
0.0
0
LINE
5
229c
8
0-0
6
CONTINUOUS
62
  7
10
1325.030
20
1123.744
30
0.0
11
1390.030
21
1123.744
31
0.0
0
LINE
5
229d
8
0-0
6
CONTINUOUS
62
  7
10
1325.030
20
1123.744
30
0.0
11
1325.030
21
838.744
31
0.0
0
LINE
5
229e
8
0-0
6
CONTINUOUS
62
  7
10
1325.030
20
838.744
30
0.0
11
1369.783
21
834.040
31
0.0
0
LINE
5
229f
8
0-0
6
CONTINUOUS
62
  7
10
1390.030
20
1123.744
30
0.0
11
1411.030
21
901.744
31
0.0
0
LINE
5
22a0
8
0-0
6
CONTINUOUS
62
  7
10
1410.557
20
906.744
30
0.0
11
1339.030
21
906.744
31
0.0
0
LINE
5
22a1
8
0-0
6
CONTINUOUS
62
  7
10
1339.030
20
842.300
30
0.0
11
1339.030
21
906.744
31
0.0
0
LINE
5
22a2
8
0-0
6
CONTINUOUS
62
  7
10
1410.557
20
907.744
30
0.0
11
1338.030
21
907.744
31
0.0
0
LINE
5
22a3
8
0-0
6
CONTINUOUS
62
  7
10
1338.030
20
842.300
30
0.0
11
1338.030
21
907.744
31
0.0
0
LINE
5
22a4
8
0-0
6
CONTINUOUS
62
  7
10
1339.030
20
842.300
30
0.0
11
1338.030
21
842.300
31
0.0
0
LINE
5
22a5
8
0-0
6
CONTINUOUS
62
  7
10
524.381
20
836.744
30
0.0
11
461.381
21
830.122
31
0.0
0
LINE
5
22a6
8
0-0
6
CONTINUOUS
62
  7
10
461.381
20
830.122
30
0.0
11
459.709
21
846.035
31
0.0
0
LINE
5
22a7
8
0-0
6
CONTINUOUS
62
  7
10
508.381
20
851.150
30
0.0
11
459.709
21
846.035
31
0.0
0
LINE
5
22a8
8
0-0
6
CONTINUOUS
62
  7
10
508.381
20
1129.744
30
0.0
11
508.381
21
851.150
31
0.0
0
LINE
5
22a9
8
0-0
6
CONTINUOUS
62
  7
10
524.381
20
1129.744
30
0.0
11
508.381
21
1129.744
31
0.0
0
LINE
5
22aa
8
0-0
6
CONTINUOUS
62
  7
10
524.381
20
1121.744
30
0.0
11
526.381
21
1121.744
31
0.0
0
LINE
5
22ab
8
0-0
6
CONTINUOUS
62
  7
10
526.381
20
1129.744
30
0.0
11
526.381
21
1121.744
31
0.0
0
LINE
5
22ac
8
0-0
6
CONTINUOUS
62
  7
10
524.381
20
1121.744
30
0.0
11
524.381
21
836.744
31
0.0
0
LINE
5
22ad
8
0-0
6
CONTINUOUS
62
  7
10
524.381
20
836.744
30
0.0
11
553.381
21
839.792
31
0.0
0
LINE
5
22ae
8
0-0
6
CONTINUOUS
62
  7
10
547.279
20
1121.744
30
0.0
11
553.381
21
1121.744
31
0.0
0
LINE
5
22af
8
0-0
6
CONTINUOUS
62
  7
10
547.279
20
1129.744
30
0.0
11
547.279
21
1121.744
31
0.0
0
LINE
5
22b0
8
0-0
6
CONTINUOUS
62
  7
10
524.381
20
1129.744
30
0.0
11
547.279
21
1129.744
31
0.0
0
LINE
5
22b1
8
0-0
6
CONTINUOUS
62
  7
10
553.381
20
1121.744
30
0.0
11
553.381
21
839.792
31
0.0
0
LINE
5
22b2
8
0-0
6
CONTINUOUS
62
  7
10
547.279
20
1121.744
30
0.0
11
526.381
21
1121.744
31
0.0
0
LINE
5
22b3
8
0-0
6
CONTINUOUS
62
  7
10
1048.408
20
1123.744
30
0.0
11
1059.370
21
837.744
31
0.0
0
LINE
5
22b4
8
0-0
6
CONTINUOUS
62
  7
10
841.408
20
838.744
30
0.0
11
841.408
21
823.744
31
0.0
0
LINE
5
22b5
8
0-0
6
CONTINUOUS
62
  7
10
1059.331
20
838.744
30
0.0
11
841.408
21
838.744
31
0.0
0
LINE
5
22b6
8
0-0
6
CONTINUOUS
62
  7
10
823.408
20
1129.744
30
0.0
11
823.408
21
1121.744
31
0.0
0
LINE
5
22b7
8
0-0
6
CONTINUOUS
62
  7
10
1022.542
20
1123.744
30
0.0
11
1048.408
21
1123.744
31
0.0
0
LINE
5
22b8
8
0-0
6
CONTINUOUS
62
  7
10
1018.408
20
1123.744
30
0.0
11
1021.672
21
1123.744
31
0.0
0
LINE
5
22b9
8
0-0
6
CONTINUOUS
62
  7
10
1021.672
20
1123.744
30
0.0
11
1022.542
21
1123.744
31
0.0
0
LINE
5
22ba
8
0-0
6
CONTINUOUS
62
  7
10
823.408
20
1121.744
30
0.0
11
1018.408
21
1121.744
31
0.0
0
LINE
5
22bb
8
0-0
6
CONTINUOUS
62
  7
10
1018.408
20
1129.744
30
0.0
11
1018.408
21
1121.744
31
0.0
0
LINE
5
22bc
8
ADD_LINE
6
HIDDEN
62
  3
10
738.123
20
477.041
30
0.0
11
768.939
21
477.041
31
0.0
0
LINE
5
22bd
8
ADD_LINE
6
HIDDEN
62
  3
10
753.408
20
491.716
30
0.0
11
753.408
21
465.677
31
0.0
0
LINE
5
22be
8
0-0
6
CONTINUOUS
62
  7
10
508.381
20
1348.663
30
0.0
11
524.381
21
1348.663
31
0.0
0
LINE
5
22bf
8
0-0
6
CONTINUOUS
62
  7
10
508.381
20
1190.555
30
0.0
11
508.381
21
1348.663
31
0.0
0
LINE
5
22c0
8
0-0
6
CONTINUOUS
62
  7
10
524.381
20
1190.555
30
0.0
11
524.381
21
1348.663
31
0.0
0
LINE
5
22c1
8
0-0
6
CONTINUOUS
62
  7
10
753.408
20
1348.663
30
0.0
11
1048.408
21
1348.663
31
0.0
0
LINE
5
22c2
8
0-0
6
CONTINUOUS
62
  7
10
753.408
20
1190.555
30
0.0
11
753.408
21
1348.663
31
0.0
0
LINE
5
22c3
8
0-0
6
CONTINUOUS
62
  7
10
1048.408
20
1190.555
30
0.0
11
1048.408
21
1348.663
31
0.0
0
LINE
5
22c4
8
0-0
6
CONTINUOUS
62
  7
10
1325.030
20
1348.663
30
0.0
11
1390.030
21
1348.663
31
0.0
0
LINE
5
22c5
8
0-0
6
CONTINUOUS
62
  7
10
1325.030
20
1190.555
30
0.0
11
1325.030
21
1348.663
31
0.0
0
LINE
5
22c6
8
0-0
6
CONTINUOUS
62
  7
10
1390.030
20
1190.555
30
0.0
11
1390.030
21
1348.663
31
0.0
0
LINE
5
22c7
8
0-0
6
CONTINUOUS
62
  7
10
753.408
20
1295.960
30
0.0
11
798.408
21
1295.960
31
0.0
0
LINE
5
22c8
8
0-0
6
CONTINUOUS
62
  7
10
753.408
20
1190.555
30
0.0
11
753.408
21
1295.960
31
0.0
0
LINE
5
22c9
8
0-0
6
CONTINUOUS
62
  7
10
798.408
20
1190.555
30
0.0
11
798.408
21
1295.960
31
0.0
0
LINE
5
22ca
8
0-0
6
CONTINUOUS
62
  7
10
461.381
20
643.257
30
0.0
11
524.381
21
643.257
31
0.0
0
LINE
5
22cb
8
0-0
6
CONTINUOUS
62
  7
10
461.381
20
756.771
30
0.0
11
461.381
21
643.257
31
0.0
0
LINE
5
22cc
8
0-0
6
CONTINUOUS
62
  7
10
524.381
20
756.771
30
0.0
11
524.381
21
643.257
31
0.0
0
LINE
5
22cd
8
0-0
6
CONTINUOUS
62
  7
10
753.408
20
643.257
30
0.0
11
1059.370
21
643.257
31
0.0
0
LINE
5
22ce
8
0-0
6
CONTINUOUS
62
  7
10
753.408
20
756.771
30
0.0
11
753.408
21
643.257
31
0.0
0
LINE
5
22cf
8
0-0
6
CONTINUOUS
62
  7
10
1059.370
20
756.771
30
0.0
11
1059.370
21
643.257
31
0.0
0
LINE
5
22d0
8
0-0
6
CONTINUOUS
62
  7
10
1325.030
20
643.257
30
0.0
11
1411.030
21
643.257
31
0.0
0
LINE
5
22d1
8
0-0
6
CONTINUOUS
62
  7
10
1325.030
20
756.771
30
0.0
11
1325.030
21
643.257
31
0.0
0
LINE
5
22d2
8
0-0
6
CONTINUOUS
62
  7
10
1411.030
20
756.771
30
0.0
11
1411.030
21
643.257
31
0.0
0
LINE
5
22d3
8
0-0
6
CONTINUOUS
62
  7
10
753.408
20
181.095
30
0.0
11
1059.370
21
181.095
31
0.0
0
LINE
5
22d4
8
0-0
6
CONTINUOUS
62
  7
10
753.408
20
327.041
30
0.0
11
753.408
21
181.095
31
0.0
0
LINE
5
22d5
8
0-0
6
CONTINUOUS
62
  7
10
1059.370
20
327.041
30
0.0
11
1059.370
21
181.095
31
0.0
0
LINE
5
22d6
8
0-0
6
CONTINUOUS
62
  7
10
643.949
20
1129.744
30
0.0
11
643.949
21
839.744
31
0.0
0
LINE
5
22d7
8
0-0
6
CONTINUOUS
62
  7
10
720.976
20
1129.744
30
0.0
11
643.949
21
1129.744
31
0.0
0
LINE
5
22d8
8
0-0
6
CONTINUOUS
62
  7
10
720.976
20
839.744
30
0.0
11
643.949
21
839.744
31
0.0
0
LINE
5
22d9
8
0-0
6
CONTINUOUS
62
  7
10
678.444
20
1129.744
30
0.0
11
678.444
21
1089.744
31
0.0
0
LINE
5
22da
8
0-0
6
CONTINUOUS
62
  7
10
720.976
20
1129.744
30
0.0
11
678.444
21
1129.744
31
0.0
0
LINE
5
22db
8
0-0
6
CONTINUOUS
62
  7
10
720.976
20
1089.744
30
0.0
11
678.444
21
1089.744
31
0.0
0
LINE
5
22dc
8
0-0
6
CONTINUOUS
62
  7
10
1195.300
20
838.744
30
0.0
11
1195.300
21
1123.744
31
0.0
0
LINE
5
22dd
8
0-0
6
CONTINUOUS
62
  7
10
1280.435
20
838.744
30
0.0
11
1195.300
21
838.744
31
0.0
0
LINE
5
22de
8
0-0
6
CONTINUOUS
62
  7
10
1280.435
20
1123.744
30
0.0
11
1195.300
21
1123.744
31
0.0
0
LINE
5
22df
8
0-0
6
CONTINUOUS
62
  7
10
1187.192
20
476.983
30
0.0
11
1187.192
21
390.041
31
0.0
0
LINE
5
22e0
8
0-0
6
CONTINUOUS
62
  7
10
1106.111
20
476.983
30
0.0
11
1187.192
21
476.983
31
0.0
0
LINE
5
22e1
8
0-0
6
CONTINUOUS
62
  7
10
1106.111
20
390.041
30
0.0
11
1187.192
21
390.041
31
0.0
0
LINE
5
22e2
8
0-0
6
CONTINUOUS
62
  7
10
1138.543
20
476.983
30
0.0
11
1138.543
21
441.041
31
0.0
0
LINE
5
22e3
8
0-0
6
CONTINUOUS
62
  7
10
1106.111
20
476.983
30
0.0
11
1138.543
21
476.983
31
0.0
0
LINE
5
22e4
8
0-0
6
CONTINUOUS
62
  7
10
1106.111
20
441.041
30
0.0
11
1138.543
21
441.041
31
0.0
0
LINE
5
22e5
8
ADD_LINE
6
HIDDEN
62
  3
10
928.378
20
390.243
30
0.0
11
928.378
21
397.560
31
0.0
0
LINE
5
22e6
8
ADD_LINE
6
HIDDEN
62
  3
10
928.378
20
390.243
30
0.0
11
928.378
21
362.264
31
0.0
0
LINE
5
22e7
8
ADD_LINE
6
HIDDEN
62
  3
10
931.536
20
381.081
30
0.0
11
924.999
21
381.081
31
0.0
0
CIRCLE
5
22e8
8
0-0
6
CONTINUOUS
62
  7
10
861.408
20
1106.744
30
0.0
40
3.000
0
CIRCLE
5
22e9
8
0-0
6
CONTINUOUS
62
  7
10
971.408
20
1106.744
30
0.0
40
3.000
0
ARC
5
22ea
8
0-0
6
CONTINUOUS
62
  7
10
796.408
20
902.119
30
0.0
40
90.375
50
240.137115
51
299.862915
0
ARC
5
22eb
8
0-0
6
CONTINUOUS
62
  7
10
668.365
20
842.249
30
0.0
40
85.080
50
347.437469
51
358.312592
0
CIRCLE
5
22ec
8
0-0
6
CONTINUOUS
62
  7
10
793.408
20
456.425
30
0.0
40
45.000
0
ARC
5
22ed
8
0-0
6
CONTINUOUS
62
  7
10
928.408
20
448.081
30
0.0
40
67.000
50
250.377533
51
287.377014
0
CIRCLE
5
22ee
8
ADD_LINE
6
HIDDEN
62
  3
10
753.408
20
476.460
30
0.0
40
3.000
0
ARC
5
22ef
8
0-0
6
CONTINUOUS
62
  7
10
941.061
20
702.065
30
0.0
40
254.299
50
245.643051
51
297.735291
0
ARC
5
22f0
8
0-0
6
CONTINUOUS
62
  7
10
97.892
20
-1307.057
30
0.0
40
1875.060
50
64.473526
51
67.260239
0
ARC
5
22f1
8
0-0
6
CONTINUOUS
62
  7
10
1913.894
20
-1354.599
30
0.0
40
1988.585
50
115.448227
51
118.866119
0
ARC
5
22f2
8
0-0
6
CONTINUOUS
62
  7
10
1418.535
20
871.143
30
0.0
40
31.508
50
463.780457
51
180.725922
0
ARC
5
22f3
8
0-0
6
CONTINUOUS
62
  7
10
1415.598
20
834.916
30
0.0
40
45.823
50
488.567932
51
181.095947
0
CIRCLE
5
22f4
8
ADD_LINE
6
HIDDEN
62
  3
10
928.378
20
381.081
30
0.0
40
3.000
0
CIRCLE
5
22f5
8
ADD_LINE
6
HIDDEN
62
  3
10
928.378
20
381.081
30
0.0
40
3.000
0
TEXT
5
22f6
100
AcDbEntity
8
0-0
62
7
100
AcDbText
10
510.131
20
1351.163
30
0.0
40
9.750
41
0.800
50
0.000
1
16
100
AcDbText
0
TEXT
5
22f7
100
AcDbEntity
8
0-0
62
7
100
AcDbText
10
891.533
20
1351.163
30
0.0
40
9.750
41
0.800
50
0.000
1
295
100
AcDbText
0
TEXT
5
22f8
100
AcDbEntity
8
0-0
62
7
100
AcDbText
10
1351.280
20
1351.163
30
0.0
40
9.750
41
0.800
50
0.000
1
65
100
AcDbText
0
TEXT
5
22f9
100
AcDbEntity
8
0-0
62
7
100
AcDbText
10
769.658
20
1298.460
30
0.0
40
9.750
41
0.800
50
0.000
1
45
100
AcDbText
0
TEXT
5
22fa
100
AcDbEntity
8
0-0
62
7
100
AcDbText
10
486.631
20
645.757
30
0.0
40
9.750
41
0.800
50
0.000
1
63
100
AcDbText
0
TEXT
5
22fb
100
AcDbEntity
8
0-0
62
7
100
AcDbText
10
897.014
20
645.757
30
0.0
40
9.750
41
0.800
50
0.000
1
306
100
AcDbText
0
TEXT
5
22fc
100
AcDbEntity
8
0-0
62
7
100
AcDbText
10
1361.780
20
645.757
30
0.0
40
9.750
41
0.800
50
0.000
1
86
100
AcDbText
0
TEXT
5
22fd
100
AcDbEntity
8
0-0
62
7
100
AcDbText
10
897.014
20
183.595
30
0.0
40
9.750
41
0.800
50
0.000
1
306
100
AcDbText
0
TEXT
5
22fe
100
AcDbEntity
8
0-0
62
7
100
AcDbText
10
641.449
20
975.369
30
0.0
40
9.750
41
0.800
50
90.000
1
290
100
AcDbText
0
TEXT
5
22ff
100
AcDbEntity
8
0-0
62
7
100
AcDbText
10
675.944
20
1103.494
30
0.0
40
9.750
41
0.800
50
90.000
1
40
100
AcDbText
0
TEXT
5
2300
100
AcDbEntity
8
0-0
62
7
100
AcDbText
10
1192.800
20
971.869
30
0.0
40
9.750
41
0.800
50
90.000
1
285
100
AcDbText
0
TEXT
5
2301
100
AcDbEntity
8
0-0
62
7
100
AcDbText
10
1184.692
20
427.262
30
0.0
40
9.750
41
0.800
50
90.000
1
87
100
AcDbText
0
TEXT
5
2302
100
AcDbEntity
8
0-0
62
7
100
AcDbText
10
1136.043
20
452.762
30
0.0
40
9.750
41
0.800
50
90.000
1
36
100
AcDbText
0
POINT
5
2303
8
0-0
62
  7
10
508.381
20
1348.663
30
0.0
0
POINT
5
2304
8
0-0
62
  7
10
524.381
20
1348.663
30
0.0
0
POINT
5
2305
8
0-0
62
  7
10
753.408
20
1348.663
30
0.0
0
POINT
5
2306
8
0-0
62
  7
10
1048.408
20
1348.663
30
0.0
0
POINT
5
2307
8
0-0
62
  7
10
1325.030
20
1348.663
30
0.0
0
POINT
5
2308
8
0-0
62
  7
10
1390.030
20
1348.663
30
0.0
0
POINT
5
2309
8
0-0
62
  7
10
753.408
20
1295.960
30
0.0
0
POINT
5
230a
8
0-0
62
  7
10
798.408
20
1295.960
30
0.0
0
POINT
5
230b
8
0-0
62
  7
10
461.381
20
643.257
30
0.0
0
POINT
5
230c
8
0-0
62
  7
10
524.381
20
643.257
30
0.0
0
POINT
5
230d
8
0-0
62
  7
10
753.408
20
643.257
30
0.0
0
POINT
5
230e
8
0-0
62
  7
10
1059.370
20
643.257
30
0.0
0
POINT
5
230f
8
0-0
62
  7
10
1325.030
20
643.257
30
0.0
0
POINT
5
2310
8
0-0
62
  7
10
1411.030
20
643.257
30
0.0
0
POINT
5
2311
8
0-0
62
  7
10
753.408
20
181.095
30
0.0
0
POINT
5
2312
8
0-0
62
  7
10
1059.370
20
181.095
30
0.0
0
POINT
5
2313
8
0-0
62
  7
10
643.949
20
1129.744
30
0.0
0
POINT
5
2314
8
0-0
62
  7
10
643.949
20
839.744
30
0.0
0
POINT
5
2315
8
0-0
62
  7
10
678.444
20
1129.744
30
0.0
0
POINT
5
2316
8
0-0
62
  7
10
678.444
20
1089.744
30
0.0
0
POINT
5
2317
8
0-0
62
  7
10
1195.300
20
838.744
30
0.0
0
POINT
5
2318
8
0-0
62
  7
10
1195.300
20
1123.744
30
0.0
0
POINT
5
2319
8
0-0
62
  7
10
1187.192
20
476.983
30
0.0
0
POINT
5
231a
8
0-0
62
  7
10
1187.192
20
390.041
30
0.0
0
POINT
5
231b
8
0-0
62
  7
10
1138.543
20
476.983
30
0.0
0
POINT
5
231c
8
0-0
62
  7
10
1138.543
20
441.041
30
0.0
0
ENDSEC
0
EOF
