0
SECTION
2
HEADER
  9
$EXTMIN
10
0
20
0
30
0
  9
$EXTMAX
10
1663.658
20
1139.396
30
0
  9
$LTSCALE
40
5.000
  9
$DIMSCALE
40
5.000
  9
$PDMODE
70
0
  9
$PDSIZE
40
40
0
ENDSEC
0
SECTION
2
TABLES
0
TABLE
2
LTYPE
70
9
0
LTYPE
5
1f4
2
CONTINUOUS
70
0
3
実線
72
65
73
0
40
0.0
0
LTYPE
5
1f5
2
DOT
70
0
3
--  --  --  --  --  --  --  --     
72
65
73
2
40
5.000
49
1.000
49
-4.000
0
LTYPE
5
1f6
2
DASHED
70
0
3
----    ----    ----    ----    
72
65
73
2
40
5.000
49
2.000
49
-3.000
0
LTYPE
5
1f7
2
DASHED2
70
0
3
------  ------  ------  ------ 
72
65
73
2
40
10.000
49
4.000
49
-6.000
0
LTYPE
5
1f8
2
CENTER
70
0
3
----- - ----- - ----- - ----- - 
72
65
73
4
40
9.000
49
6.000
49
-1.000
49
1.000
49
-1.000
0
LTYPE
5
1f9
2
CENTER2
70
0
3
----------  --  ----------  -- 
72
65
73
4
40
18.000
49
12.000
49
-2.000
49
2.000
49
-2.000
0
LTYPE
5
1fa
2
PHANTOM
70
0
3
--- - - --- - - --- - - --- - -
72
65
73
6
40
10.000
49
5.000
49
-1.000
49
1.000
49
-1.000
49
1.000
49
-1.000
0
LTYPE
5
1fb
2
PHANTOM2
70
0
3
--------  -  -  --------  -  -
72
65
73
6
40
16.000
49
6.000
49
-2.000
49
2.000
49
-2.000
49
2.000
49
-2.000
0
LTYPE
5
1fc
2
HIDDEN
70
0
3
-   -   -   -   -   -   -   -   
72
65
73
2
40
2.500
49
0.500
49
-2.000
0
ENDTAB
0
TABLE
2
STYLE
70
1
0
STYLE
5
1fd
100
AcDbSymbolTableRecord
100
AcDbTextStyleTableRecord
2
STANDARD
70
0
40
0.0
41
1.0
50
0.0
71
0
42
0.0
3
txt.shx
4
extfont.shx
0
STYLE
5
1fe
100
AcDbSymbolTableRecord
100
AcDbTextStyleTableRecord
2
TATEGAKI
70
4
40
0.0
41
1.0
50
0.0
71
0
42
0.0
3
txt.shx
4
extfont.shx
0
STYLE
5
1ff
100
AcDbSymbolTableRecord
100
AcDbTextStyleTableRecord
2
MT
70
0
40
0.0
41
1.0
50
0.0
71
0
42
0.0
3
MS Mincho
4

0
STYLE
5
200
100
AcDbSymbolTableRecord
100
AcDbTextStyleTableRecord
2
TMT
70
4
40
0.0
41
1.0
50
0.0
71
0
42
0.0
3
@MS Mincho
4

0
ENDTAB
0
TABLE
2
LAYER
5
242b
100
AcDbSymbolTable
70
10
0
LAYER
5
242c
100
AcDbSymbolTableRecord
100
AcDbLayerTableRecord
2
0
70
64
62
  7
  6
CONTINUOUS
0
LAYER
5
242d
100
AcDbSymbolTableRecord
100
AcDbLayerTableRecord
2
0-0
70
64
62
  7
  6
CONTINUOUS
0
LAYER
5
242e
100
AcDbSymbolTableRecord
100
AcDbLayerTableRecord
2
ADD_LINE
70
64
62
  -7
  6
CONTINUOUS
0
ENDTAB
0
ENDSEC
0
SECTION
2
ENTITIES
0
LINE
5
242f
8
0-0
6
CONTINUOUS
62
  7
10
1029.802
20
406.463
30
0.0
11
1029.802
21
378.691
31
0.0
0
LINE
5
2430
8
0-0
6
CONTINUOUS
62
  7
10
1164.802
20
396.874
30
0.0
11
1164.802
21
376.148
31
0.0
0
LINE
5
2431
8
0-0
6
CONTINUOUS
62
  7
10
1035.802
20
400.404
30
0.0
11
1035.802
21
380.850
31
0.0
0
LINE
5
2432
8
0-0
6
CONTINUOUS
62
  7
10
1034.802
20
401.747
30
0.0
11
1034.802
21
380.130
31
0.0
0
LINE
5
2433
8
0-0
6
CONTINUOUS
62
  7
10
1158.802
20
391.802
30
0.0
11
1158.802
21
378.507
31
0.0
0
LINE
5
2434
8
0-0
6
CONTINUOUS
62
  7
10
1159.802
20
392.966
30
0.0
11
1159.802
21
377.757
31
0.0
0
LINE
5
2435
8
0-0
6
CONTINUOUS
62
  7
10
930.941
20
972.720
30
0.0
11
973.941
21
972.720
31
0.0
0
LINE
5
2436
8
0-0
6
CONTINUOUS
62
  7
10
975.941
20
1012.720
30
0.0
11
973.941
21
972.720
31
0.0
0
LINE
5
2437
8
0-0
6
CONTINUOUS
62
  7
10
1000.941
20
1012.720
30
0.0
11
1000.941
21
1004.720
31
0.0
0
LINE
5
2438
8
0-0
6
CONTINUOUS
62
  7
10
1000.941
20
1004.720
30
0.0
11
1230.941
21
1004.720
31
0.0
0
LINE
5
2439
8
0-0
6
CONTINUOUS
62
  7
10
1195.941
20
1004.720
30
0.0
11
1185.941
21
1012.720
31
0.0
0
LINE
5
243a
8
0-0
6
CONTINUOUS
62
  7
10
975.941
20
1012.720
30
0.0
11
1185.941
21
1012.720
31
0.0
0
LINE
5
243b
8
0-0
6
CONTINUOUS
62
  7
10
1230.941
20
1004.720
30
0.0
11
1230.941
21
715.720
31
0.0
0
LINE
5
243c
8
0-0
6
CONTINUOUS
62
  7
10
920.941
20
705.720
30
0.0
11
1008.941
21
705.720
31
0.0
0
LINE
5
243d
8
0-0
6
CONTINUOUS
62
  7
10
1033.941
20
715.720
30
0.0
11
1230.941
21
715.720
31
0.0
0
LINE
5
243e
8
0-0
6
CONTINUOUS
62
  7
10
920.941
20
705.720
30
0.0
11
1008.941
21
705.720
31
0.0
0
LINE
5
243f
8
0-0
6
CONTINUOUS
62
  7
10
1008.941
20
719.470
30
0.0
11
1008.941
21
719.923
31
0.0
0
LINE
5
2440
8
0-0
6
CONTINUOUS
62
  7
10
1008.941
20
719.470
30
0.0
11
920.941
21
719.470
31
0.0
0
LINE
5
2441
8
0-0
6
CONTINUOUS
62
  7
10
920.941
20
719.470
30
0.0
11
920.941
21
705.720
31
0.0
0
LINE
5
2442
8
0-0
6
CONTINUOUS
62
  7
10
930.941
20
972.720
30
0.0
11
930.941
21
732.063
31
0.0
0
LINE
5
2443
8
0-0
6
CONTINUOUS
62
  7
10
1008.941
20
719.470
30
0.0
11
1008.941
21
705.720
31
0.0
0
LINE
5
2444
8
0-0
6
CONTINUOUS
62
  7
10
1008.875
20
719.479
30
0.0
11
1033.941
21
715.720
31
0.0
0
LINE
5
2445
8
0-0
6
CONTINUOUS
62
  7
10
1230.941
20
428.231
30
0.0
11
1230.941
21
390.231
31
0.0
0
LINE
5
2446
8
0-0
6
CONTINUOUS
62
  7
10
1530.315
20
1004.720
30
0.0
11
1595.315
21
1004.720
31
0.0
0
LINE
5
2447
8
0-0
6
CONTINUOUS
62
  7
10
1620.315
20
781.113
30
0.0
11
1595.315
21
1004.720
31
0.0
0
LINE
5
2448
8
0-0
6
CONTINUOUS
62
  7
10
1550.315
20
791.113
30
0.0
11
1550.315
21
724.720
31
0.0
0
LINE
5
2449
8
0-0
6
CONTINUOUS
62
  7
10
1619.197
20
791.113
30
0.0
11
1550.315
21
791.113
31
0.0
0
LINE
5
244a
8
0-0
6
CONTINUOUS
62
  7
10
1530.315
20
1004.720
30
0.0
11
1530.315
21
714.720
31
0.0
0
LINE
5
244b
8
0-0
6
CONTINUOUS
62
  7
10
1549.315
20
724.720
30
0.0
11
1550.315
21
724.720
31
0.0
0
LINE
5
244c
8
0-0
6
CONTINUOUS
62
  7
10
1619.197
20
792.113
30
0.0
11
1549.315
21
792.113
31
0.0
0
LINE
5
244d
8
0-0
6
CONTINUOUS
62
  7
10
1549.315
20
792.113
30
0.0
11
1549.315
21
724.720
31
0.0
0
LINE
5
244e
8
0-0
6
CONTINUOUS
62
  7
10
1530.315
20
1004.720
30
0.0
11
1530.315
21
715.720
31
0.0
0
LINE
5
244f
8
0-0
6
CONTINUOUS
62
  7
10
1530.315
20
715.720
30
0.0
11
1575.305
21
715.720
31
0.0
0
LINE
5
2450
8
0-0
6
CONTINUOUS
62
  7
10
641.049
20
1012.720
30
0.0
11
641.049
21
1004.720
31
0.0
0
LINE
5
2451
8
0-0
6
CONTINUOUS
62
  7
10
594.049
20
711.990
30
0.0
11
592.272
21
728.897
31
0.0
0
LINE
5
2452
8
0-0
6
CONTINUOUS
62
  7
10
639.049
20
716.719
30
0.0
11
594.049
21
711.990
31
0.0
0
LINE
5
2453
8
0-0
6
CONTINUOUS
62
  7
10
639.049
20
1004.720
30
0.0
11
639.049
21
716.719
31
0.0
0
LINE
5
2454
8
0-0
6
CONTINUOUS
62
  7
10
621.049
20
731.921
30
0.0
11
592.272
21
728.897
31
0.0
0
LINE
5
2455
8
0-0
6
CONTINUOUS
62
  7
10
621.049
20
1012.720
30
0.0
11
621.049
21
731.921
31
0.0
0
LINE
5
2456
8
0-0
6
CONTINUOUS
62
  7
10
639.049
20
716.719
30
0.0
11
675.049
21
720.503
31
0.0
0
LINE
5
2457
8
0-0
6
CONTINUOUS
62
  7
10
621.049
20
1012.720
30
0.0
11
668.677
21
1012.720
31
0.0
0
LINE
5
2458
8
0-0
6
CONTINUOUS
62
  7
10
639.049
20
1004.720
30
0.0
11
675.049
21
1004.720
31
0.0
0
LINE
5
2459
8
0-0
6
CONTINUOUS
62
  7
10
675.049
20
1004.720
30
0.0
11
675.049
21
720.503
31
0.0
0
LINE
5
245a
8
0-0
6
CONTINUOUS
62
  7
10
668.677
20
1012.720
30
0.0
11
668.677
21
1004.720
31
0.0
0
LINE
5
245b
8
0-0
6
CONTINUOUS
62
  7
10
621.049
20
1136.896
30
0.0
11
639.049
21
1136.896
31
0.0
0
LINE
5
245c
8
0-0
6
CONTINUOUS
62
  7
10
621.049
20
1039.599
30
0.0
11
621.049
21
1136.896
31
0.0
0
LINE
5
245d
8
0-0
6
CONTINUOUS
62
  7
10
639.049
20
1039.599
30
0.0
11
639.049
21
1136.896
31
0.0
0
LINE
5
245e
8
0-0
6
CONTINUOUS
62
  7
10
930.941
20
1136.896
30
0.0
11
1230.941
21
1136.896
31
0.0
0
LINE
5
245f
8
0-0
6
CONTINUOUS
62
  7
10
930.941
20
1039.599
30
0.0
11
930.941
21
1136.896
31
0.0
0
LINE
5
2460
8
0-0
6
CONTINUOUS
62
  7
10
1230.941
20
1039.599
30
0.0
11
1230.941
21
1136.896
31
0.0
0
LINE
5
2461
8
0-0
6
CONTINUOUS
62
  7
10
1530.315
20
1136.896
30
0.0
11
1595.315
21
1136.896
31
0.0
0
LINE
5
2462
8
0-0
6
CONTINUOUS
62
  7
10
1530.315
20
1039.599
30
0.0
11
1530.315
21
1136.896
31
0.0
0
LINE
5
2463
8
0-0
6
CONTINUOUS
62
  7
10
1595.315
20
1039.599
30
0.0
11
1595.315
21
1136.896
31
0.0
0
LINE
5
2464
8
0-0
6
CONTINUOUS
62
  7
10
930.941
20
1092.301
30
0.0
11
975.941
21
1092.301
31
0.0
0
LINE
5
2465
8
0-0
6
CONTINUOUS
62
  7
10
930.941
20
1039.599
30
0.0
11
930.941
21
1092.301
31
0.0
0
LINE
5
2466
8
0-0
6
CONTINUOUS
62
  7
10
975.941
20
1039.599
30
0.0
11
975.941
21
1092.301
31
0.0
0
LINE
5
2467
8
0-0
6
CONTINUOUS
62
  7
10
594.049
20
601.761
30
0.0
11
639.049
21
601.761
31
0.0
0
LINE
5
2468
8
0-0
6
CONTINUOUS
62
  7
10
594.049
20
666.626
30
0.0
11
594.049
21
601.761
31
0.0
0
LINE
5
2469
8
0-0
6
CONTINUOUS
62
  7
10
639.049
20
666.626
30
0.0
11
639.049
21
601.761
31
0.0
0
LINE
5
246a
8
0-0
6
CONTINUOUS
62
  7
10
930.941
20
601.761
30
0.0
11
1230.941
21
601.761
31
0.0
0
LINE
5
246b
8
0-0
6
CONTINUOUS
62
  7
10
930.941
20
666.626
30
0.0
11
930.941
21
601.761
31
0.0
0
LINE
5
246c
8
0-0
6
CONTINUOUS
62
  7
10
1230.941
20
666.626
30
0.0
11
1230.941
21
601.761
31
0.0
0
LINE
5
246d
8
0-0
6
CONTINUOUS
62
  7
10
1530.315
20
601.761
30
0.0
11
1620.315
21
601.761
31
0.0
0
LINE
5
246e
8
0-0
6
CONTINUOUS
62
  7
10
1530.315
20
666.626
30
0.0
11
1530.315
21
601.761
31
0.0
0
LINE
5
246f
8
0-0
6
CONTINUOUS
62
  7
10
1620.315
20
666.626
30
0.0
11
1620.315
21
601.761
31
0.0
0
LINE
5
2470
8
0-0
6
CONTINUOUS
62
  7
10
1213.941
20
341.231
30
0.0
11
1230.941
21
341.231
31
0.0
0
LINE
5
2471
8
0-0
6
CONTINUOUS
62
  7
10
1230.941
20
428.231
30
0.0
11
1230.941
21
341.231
31
0.0
0
LINE
5
2472
8
0-0
6
CONTINUOUS
62
  7
10
1213.941
20
374.231
30
0.0
11
1230.941
21
374.231
31
0.0
0
LINE
5
2473
8
0-0
6
CONTINUOUS
62
  7
10
1213.941
20
381.789
30
0.0
11
1213.941
21
341.231
31
0.0
0
LINE
5
2474
8
ADD_LINE
6
HIDDEN
62
  3
10
931.911
20
414.116
30
0.0
11
924.057
21
414.116
31
0.0
0
LINE
5
2475
8
ADD_LINE
6
HIDDEN
62
  3
10
931.911
20
414.116
30
0.0
11
936.056
21
414.116
31
0.0
0
LINE
5
2476
8
ADD_LINE
6
HIDDEN
62
  3
10
930.941
20
428.352
30
0.0
11
930.941
21
406.319
31
0.0
0
LINE
5
2477
8
0-0
6
CONTINUOUS
62
  7
10
930.941
20
165.540
30
0.0
11
1230.941
21
165.540
31
0.0
0
LINE
5
2478
8
0-0
6
CONTINUOUS
62
  7
10
930.941
20
281.916
30
0.0
11
930.941
21
165.540
31
0.0
0
LINE
5
2479
8
0-0
6
CONTINUOUS
62
  7
10
1230.941
20
281.916
30
0.0
11
1230.941
21
165.540
31
0.0
0
LINE
5
247a
8
0-0
6
CONTINUOUS
62
  7
10
1410.979
20
1004.720
30
0.0
11
1410.979
21
715.720
31
0.0
0
LINE
5
247b
8
0-0
6
CONTINUOUS
62
  7
10
1485.361
20
1004.720
30
0.0
11
1410.979
21
1004.720
31
0.0
0
LINE
5
247c
8
0-0
6
CONTINUOUS
62
  7
10
1485.361
20
715.720
30
0.0
11
1410.979
21
715.720
31
0.0
0
LINE
5
247d
8
0-0
6
CONTINUOUS
62
  7
10
1333.216
20
1012.720
30
0.0
11
1333.216
21
715.720
31
0.0
0
LINE
5
247e
8
0-0
6
CONTINUOUS
62
  7
10
1265.597
20
1012.720
30
0.0
11
1333.216
21
1012.720
31
0.0
0
LINE
5
247f
8
0-0
6
CONTINUOUS
62
  7
10
1265.597
20
715.720
30
0.0
11
1333.216
21
715.720
31
0.0
0
LINE
5
2480
8
0-0
6
CONTINUOUS
62
  7
10
1299.448
20
1012.720
30
0.0
11
1299.448
21
1004.720
31
0.0
0
LINE
5
2481
8
0-0
6
CONTINUOUS
62
  7
10
1265.597
20
1012.720
30
0.0
11
1299.448
21
1012.720
31
0.0
0
LINE
5
2482
8
0-0
6
CONTINUOUS
62
  7
10
1265.597
20
1004.720
30
0.0
11
1299.448
21
1004.720
31
0.0
0
LINE
5
2483
8
ADD_LINE
6
HIDDEN
62
  3
10
1098.649
20
351.709
30
0.0
11
1098.649
21
360.960
31
0.0
0
CIRCLE
5
2484
8
0-0
6
CONTINUOUS
62
  7
10
965.941
20
410.727
30
0.0
40
45.000
0
CIRCLE
5
2485
8
ADD_LINE
6
HIDDEN
62
  3
10
930.941
20
414.116
30
0.0
40
3.000
0
CIRCLE
5
2486
8
0-0
6
CONTINUOUS
62
  7
10
965.941
20
410.727
30
0.0
40
36.000
0
CIRCLE
5
2487
8
0-0
6
CONTINUOUS
62
  7
10
965.941
20
410.727
30
0.0
40
26.000
0
CIRCLE
5
2488
8
0-0
6
CONTINUOUS
62
  7
10
965.941
20
410.727
30
0.0
40
27.000
0
ARC
5
2489
8
0-0
6
CONTINUOUS
62
  7
10
971.393
20
417.194
30
0.0
40
8.562
50
89.708176
51
225.900665
0
ARC
5
248a
8
0-0
6
CONTINUOUS
62
  7
10
971.354
20
409.474
30
0.0
40
16.283
50
5.536682
51
89.708099
0
ARC
5
248b
8
0-0
6
CONTINUOUS
62
  7
10
965.226
20
408.880
30
0.0
40
22.440
50
271.434967
51
5.536697
0
ARC
5
248c
8
0-0
6
CONTINUOUS
62
  7
10
972.476
20
413.422
30
0.0
40
7.432
50
96.586990
51
198.658157
0
ARC
5
248d
8
0-0
6
CONTINUOUS
62
  7
10
973.091
20
408.094
30
0.0
40
12.795
50
33.625534
51
96.586975
0
ARC
5
248e
8
0-0
6
CONTINUOUS
62
  7
10
971.426
20
406.987
30
0.0
40
14.794
50
357.056061
51
33.625488
0
ARC
5
248f
8
0-0
6
CONTINUOUS
62
  7
10
965.373
20
407.298
30
0.0
40
20.855
50
271.140259
51
357.056091
0
ARC
5
2490
8
0-0
6
CONTINUOUS
62
  7
10
968.816
20
402.772
30
0.0
40
8.562
50
329.708191
51
465.900665
0
ARC
5
2491
8
0-0
6
CONTINUOUS
62
  7
10
962.150
20
406.666
30
0.0
40
16.283
50
245.536682
51
329.708099
0
ARC
5
2492
8
0-0
6
CONTINUOUS
62
  7
10
964.699
20
412.270
30
0.0
40
22.440
50
511.434967
51
245.536697
0
ARC
5
2493
8
0-0
6
CONTINUOUS
62
  7
10
965.008
20
403.720
30
0.0
40
7.432
50
336.586975
51
438.658142
0
ARC
5
2494
8
0-0
6
CONTINUOUS
62
  7
10
960.087
20
405.851
30
0.0
40
12.795
50
273.625549
51
336.586975
0
ARC
5
2495
8
0-0
6
CONTINUOUS
62
  7
10
959.960
20
407.847
30
0.0
40
14.794
50
597.056030
51
273.625488
0
ARC
5
2496
8
0-0
6
CONTINUOUS
62
  7
10
963.256
20
412.934
30
0.0
40
20.855
50
511.140259
51
597.056091
0
ARC
5
2497
8
0-0
6
CONTINUOUS
62
  7
10
957.615
20
412.215
30
0.0
40
8.562
50
209.708176
51
345.900665
0
ARC
5
2498
8
0-0
6
CONTINUOUS
62
  7
10
964.320
20
416.041
30
0.0
40
16.283
50
125.536682
51
209.708099
0
ARC
5
2499
8
0-0
6
CONTINUOUS
62
  7
10
967.899
20
411.031
30
0.0
40
22.440
50
391.434967
51
125.536697
0
ARC
5
249a
8
0-0
6
CONTINUOUS
62
  7
10
960.340
20
415.038
30
0.0
40
7.432
50
216.586990
51
318.658142
0
ARC
5
249b
8
0-0
6
CONTINUOUS
62
  7
10
964.646
20
418.235
30
0.0
40
12.795
50
153.625534
51
216.586975
0
ARC
5
249c
8
0-0
6
CONTINUOUS
62
  7
10
966.438
20
417.346
30
0.0
40
14.794
50
477.056061
51
153.625488
0
ARC
5
249d
8
0-0
6
CONTINUOUS
62
  7
10
969.195
20
411.949
30
0.0
40
20.855
50
391.140259
51
477.056091
0
CIRCLE
5
249e
8
0-0
6
CONTINUOUS
62
  7
10
965.941
20
442.227
30
0.0
40
1.500
0
CIRCLE
5
249f
8
0-0
6
CONTINUOUS
62
  7
10
953.887
20
439.829
30
0.0
40
1.500
0
CIRCLE
5
24a0
8
0-0
6
CONTINUOUS
62
  7
10
943.667
20
433.001
30
0.0
40
1.500
0
CIRCLE
5
24a1
8
0-0
6
CONTINUOUS
62
  7
10
936.839
20
422.781
30
0.0
40
1.500
0
CIRCLE
5
24a2
8
0-0
6
CONTINUOUS
62
  7
10
934.441
20
410.727
30
0.0
40
1.500
0
CIRCLE
5
24a3
8
0-0
6
CONTINUOUS
62
  7
10
936.839
20
398.672
30
0.0
40
1.500
0
CIRCLE
5
24a4
8
0-0
6
CONTINUOUS
62
  7
10
943.667
20
388.453
30
0.0
40
1.500
0
CIRCLE
5
24a5
8
0-0
6
CONTINUOUS
62
  7
10
953.887
20
381.625
30
0.0
40
1.500
0
CIRCLE
5
24a6
8
0-0
6
CONTINUOUS
62
  7
10
965.941
20
379.227
30
0.0
40
1.500
0
CIRCLE
5
24a7
8
0-0
6
CONTINUOUS
62
  7
10
977.996
20
381.625
30
0.0
40
1.500
0
CIRCLE
5
24a8
8
0-0
6
CONTINUOUS
62
  7
10
988.215
20
388.453
30
0.0
40
1.500
0
CIRCLE
5
24a9
8
0-0
6
CONTINUOUS
62
  7
10
995.044
20
398.672
30
0.0
40
1.500
0
CIRCLE
5
24aa
8
0-0
6
CONTINUOUS
62
  7
10
997.441
20
410.727
30
0.0
40
1.500
0
CIRCLE
5
24ab
8
0-0
6
CONTINUOUS
62
  7
10
995.044
20
422.781
30
0.0
40
1.500
0
CIRCLE
5
24ac
8
0-0
6
CONTINUOUS
62
  7
10
988.215
20
433.001
30
0.0
40
1.500
0
CIRCLE
5
24ad
8
0-0
6
CONTINUOUS
62
  7
10
977.996
20
439.829
30
0.0
40
1.500
0
ARC
5
24ae
8
0-0
6
CONTINUOUS
62
  7
10
1031.355
20
406.430
30
0.0
40
1.554
50
73.284592
51
178.790741
0
ARC
5
24af
8
0-0
6
CONTINUOUS
62
  7
10
1033.113
20
378.917
30
0.0
40
3.318
50
183.907471
51
246.736267
0
ARC
5
24b0
8
0-0
6
CONTINUOUS
62
  7
10
1163.130
20
396.874
30
0.0
40
1.673
50
358.435120
51
101.300797
0
ARC
5
24b1
8
0-0
6
CONTINUOUS
62
  7
10
1161.444
20
376.530
30
0.0
40
3.380
50
293.693634
51
353.519409
0
ARC
5
24b2
8
0-0
6
CONTINUOUS
62
  7
10
1101.067
20
577.296
30
0.0
40
213.003
50
251.023300
51
286.847839
0
ARC
5
24b3
8
0-0
6
CONTINUOUS
62
  7
10
1116.634
20
672.523
30
0.0
40
277.871
50
252.224289
51
279.564056
0
ARC
5
24b4
8
0-0
6
CONTINUOUS
62
  7
10
1116.634
20
672.523
30
0.0
40
283.871
50
253.456223
51
278.542755
0
ARC
5
24b5
8
0-0
6
CONTINUOUS
62
  7
10
1101.067
20
577.296
30
0.0
40
207.003
50
251.621948
51
286.195068
0
ARC
5
24b6
8
0-0
6
CONTINUOUS
62
  7
10
1101.067
20
577.296
30
0.0
40
208.003
50
251.423080
51
286.402008
0
ARC
5
24b7
8
0-0
6
CONTINUOUS
62
  7
10
1116.634
20
672.523
30
0.0
40
282.871
50
253.184555
51
278.778076
0
ARC
5
24b8
8
0-0
6
CONTINUOUS
62
  7
10
1100.635
20
380.113
30
0.0
40
4.833
50
133.603226
51
226.396774
0
ARC
5
24b9
8
0-0
6
CONTINUOUS
62
  7
10
1093.969
20
380.113
30
0.0
40
4.833
50
313.603210
51
46.396774
0
ARC
5
24ba
8
0-0
6
CONTINUOUS
62
  7
10
1102.500
20
371.618
30
0.0
40
4.833
50
433.603210
51
526.396790
0
ARC
5
24bb
8
0-0
6
CONTINUOUS
62
  7
10
1099.166
20
377.391
30
0.0
40
4.833
50
613.603210
51
346.396790
0
ARC
5
24bc
8
0-0
6
CONTINUOUS
62
  7
10
1092.104
20
371.618
30
0.0
40
4.833
50
373.603210
51
466.396759
0
ARC
5
24bd
8
0-0
6
CONTINUOUS
62
  7
10
1095.438
20
377.391
30
0.0
40
4.833
50
553.603210
51
286.396759
0
ARC
5
24be
8
0-0
6
CONTINUOUS
62
  7
10
1110.869
20
379.489
30
0.0
40
3.325
50
118.669327
51
162.529541
0
ARC
5
24bf
8
0-0
6
CONTINUOUS
62
  7
10
1110.590
20
380.000
30
0.0
40
2.743
50
5.894485
51
118.669556
0
ARC
5
24c0
8
0-0
6
CONTINUOUS
62
  7
10
1104.444
20
379.365
30
0.0
40
8.921
50
299.185181
51
5.894394
0
ARC
5
24c1
8
0-0
6
CONTINUOUS
62
  7
10
1107.283
20
377.510
30
0.0
40
4.675
50
356.162231
51
20.095398
0
ARC
5
24c2
8
0-0
6
CONTINUOUS
62
  7
10
1104.467
20
377.699
30
0.0
40
7.497
50
305.255981
51
356.162292
0
ARC
5
24c3
8
0-0
6
CONTINUOUS
62
  7
10
1109.006
20
380.075
30
0.0
40
1.372
50
162.529739
51
350.784485
0
ARC
5
24c4
8
0-0
6
CONTINUOUS
62
  7
10
1110.584
20
378.718
30
0.0
40
1.160
50
20.095261
51
101.137894
0
ARC
5
24c5
8
0-0
6
CONTINUOUS
62
  7
10
1117.155
20
383.729
30
0.0
40
3.325
50
118.669327
51
162.529541
0
ARC
5
24c6
8
0-0
6
CONTINUOUS
62
  7
10
1115.291
20
384.316
30
0.0
40
1.372
50
162.529739
51
350.784485
0
ARC
5
24c7
8
0-0
6
CONTINUOUS
62
  7
10
1117.331
20
383.416
30
0.0
40
3.685
50
27.623322
51
118.737656
0
ARC
5
24c8
8
0-0
6
CONTINUOUS
62
  7
10
1115.509
20
382.462
30
0.0
40
5.741
50
352.538086
51
27.623352
0
ARC
5
24c9
8
0-0
6
CONTINUOUS
62
  7
10
1109.533
20
383.245
30
0.0
40
11.768
50
301.023010
51
352.538025
0
ARC
5
24ca
8
0-0
6
CONTINUOUS
62
  7
10
1117.562
20
383.327
30
0.0
40
1.197
50
57.783249
51
140.024597
0
ARC
5
24cb
8
0-0
6
CONTINUOUS
62
  7
10
1117.086
20
382.571
30
0.0
40
2.091
50
13.292587
51
57.783340
0
ARC
5
24cc
8
0-0
6
CONTINUOUS
62
  7
10
1109.714
20
380.829
30
0.0
40
9.666
50
307.499268
51
13.292603
0
ARC
5
24cd
8
0-0
6
CONTINUOUS
62
  7
10
1133.593
20
382.450
30
0.0
40
1.059
50
70.999924
51
284.594666
0
ARC
5
24ce
8
0-0
6
CONTINUOUS
62
  7
10
1132.535
20
386.512
30
0.0
40
5.256
50
284.594360
51
317.841919
0
ARC
5
24cf
8
0-0
6
CONTINUOUS
62
  7
10
1134.391
20
384.831
30
0.0
40
2.752
50
317.842133
51
88.084778
0
ARC
5
24d0
8
0-0
6
CONTINUOUS
62
  7
10
1134.246
20
380.501
30
0.0
40
7.085
50
88.084595
51
144.448746
0
ARC
5
24d1
8
0-0
6
CONTINUOUS
62
  7
10
1132.358
20
384.367
30
0.0
40
1.825
50
329.919250
51
96.700760
0
ARC
5
24d2
8
0-0
6
CONTINUOUS
62
  7
10
1132.970
20
379.157
30
0.0
40
7.070
50
96.700546
51
129.401627
0
ARC
5
24d3
8
0-0
6
CONTINUOUS
62
  7
10
1127.711
20
375.631
30
0.0
40
1.732
50
105.240036
51
245.231003
0
ARC
5
24d4
8
0-0
6
CONTINUOUS
62
  7
10
1127.904
20
376.050
30
0.0
40
2.193
50
245.230499
51
347.897675
0
ARC
5
24d5
8
0-0
6
CONTINUOUS
62
  7
10
1124.260
20
376.831
30
0.0
40
5.920
50
347.897827
51
23.524200
0
ARC
5
24d6
8
0-0
6
CONTINUOUS
62
  7
10
1127.331
20
378.168
30
0.0
40
2.570
50
23.523972
51
95.717041
0
ARC
5
24d7
8
0-0
6
CONTINUOUS
62
  7
10
1127.750
20
373.990
30
0.0
40
6.768
50
95.716873
51
134.316071
0
ARC
5
24d8
8
0-0
6
CONTINUOUS
62
  7
10
1124.418
20
376.239
30
0.0
40
2.946
50
21.140121
51
118.294769
0
ARC
5
24d9
8
0-0
6
CONTINUOUS
62
  7
10
1141.943
20
380.979
30
0.0
40
1.964
50
194.560944
51
281.428284
0
ARC
5
24da
8
0-0
6
CONTINUOUS
62
  7
10
1141.473
20
383.306
30
0.0
40
4.339
50
281.428650
51
4.337677
0
ARC
5
24db
8
0-0
6
CONTINUOUS
62
  7
10
1140.705
20
383.248
30
0.0
40
5.109
50
4.337646
51
31.598572
0
ARC
5
24dc
8
0-0
6
CONTINUOUS
62
  7
10
1141.872
20
383.966
30
0.0
40
3.739
50
31.598648
51
76.162277
0
ARC
5
24dd
8
0-0
6
CONTINUOUS
62
  7
10
1139.111
20
372.755
30
0.0
40
15.285
50
76.162231
51
87.898865
0
ARC
5
24de
8
0-0
6
CONTINUOUS
62
  7
10
1138.448
20
382.537
30
0.0
40
5.627
50
27.324509
51
77.447830
0
ARC
5
24df
8
0-0
6
CONTINUOUS
62
  7
10
1141.772
20
384.255
30
0.0
40
1.885
50
314.762085
51
27.325027
0
ARC
5
24e0
8
0-0
6
CONTINUOUS
62
  7
10
1142.110
20
381.022
30
0.0
40
2.137
50
62.412979
51
194.560898
0
ARC
5
24e1
8
0-0
6
CONTINUOUS
62
  7
10
1152.998
20
386.531
30
0.0
40
2.554
50
164.464676
51
224.605484
0
ARC
5
24e2
8
0-0
6
CONTINUOUS
62
  7
10
1153.499
20
386.392
30
0.0
40
3.073
50
75.783356
51
164.464722
0
ARC
5
24e3
8
0-0
6
CONTINUOUS
62
  7
10
1153.335
20
385.746
30
0.0
40
3.740
50
29.405350
51
75.783447
0
ARC
5
24e4
8
0-0
6
CONTINUOUS
62
  7
10
1152.863
20
385.480
30
0.0
40
4.282
50
358.669006
51
29.405548
0
ARC
5
24e5
8
0-0
6
CONTINUOUS
62
  7
10
1122.768
20
386.179
30
0.0
40
34.384
50
355.607056
51
358.669006
0
ARC
5
24e6
8
0-0
6
CONTINUOUS
62
  7
10
1153.271
20
383.836
30
0.0
40
3.792
50
312.097961
51
355.606873
0
ARC
5
24e7
8
0-0
6
CONTINUOUS
62
  7
10
1154.006
20
383.022
30
0.0
40
2.695
50
258.603699
51
312.097839
0
ARC
5
24e8
8
0-0
6
CONTINUOUS
62
  7
10
1154.856
20
387.238
30
0.0
40
6.996
50
237.413803
51
258.603638
0
ARC
5
24e9
8
0-0
6
CONTINUOUS
62
  7
10
1152.771
20
384.068
30
0.0
40
3.203
50
238.301224
51
313.787506
0
ARC
5
24ea
8
0-0
6
CONTINUOUS
62
  7
10
1152.177
20
385.721
30
0.0
40
1.401
50
224.605423
51
350.741547
0
ARC
5
24eb
8
0-0
6
CONTINUOUS
62
  7
10
1153.484
20
383.325
30
0.0
40
2.173
50
313.787659
51
88.016068
0
ARC
5
24ec
8
0-0
6
CONTINUOUS
62
  7
10
1151.523
20
380.391
30
0.0
40
3.677
50
149.772629
51
210.227783
0
ARC
5
24ed
8
0-0
6
CONTINUOUS
62
  7
10
1145.168
20
380.391
30
0.0
40
3.677
50
329.772217
51
30.227371
0
ARC
5
24ee
8
0-0
6
CONTINUOUS
62
  7
10
1083.734
20
379.489
30
0.0
40
3.325
50
377.470459
51
421.330688
0
ARC
5
24ef
8
0-0
6
CONTINUOUS
62
  7
10
1084.014
20
380.000
30
0.0
40
2.743
50
421.330444
51
534.105530
0
ARC
5
24f0
8
0-0
6
CONTINUOUS
62
  7
10
1090.160
20
379.365
30
0.0
40
8.921
50
534.105591
51
240.814804
0
ARC
5
24f1
8
0-0
6
CONTINUOUS
62
  7
10
1087.321
20
377.510
30
0.0
40
4.675
50
519.904602
51
183.837784
0
ARC
5
24f2
8
0-0
6
CONTINUOUS
62
  7
10
1090.137
20
377.699
30
0.0
40
7.497
50
183.837708
51
234.744003
0
ARC
5
24f3
8
0-0
6
CONTINUOUS
62
  7
10
1085.598
20
380.075
30
0.0
40
1.372
50
189.215500
51
377.470276
0
ARC
5
24f4
8
0-0
6
CONTINUOUS
62
  7
10
1084.020
20
378.718
30
0.0
40
1.160
50
438.862122
51
519.904724
0
ARC
5
24f5
8
0-0
6
CONTINUOUS
62
  7
10
1077.450
20
383.729
30
0.0
40
3.325
50
377.470459
51
421.330688
0
ARC
5
24f6
8
0-0
6
CONTINUOUS
62
  7
10
1079.313
20
384.316
30
0.0
40
1.372
50
189.215500
51
377.470276
0
ARC
5
24f7
8
0-0
6
CONTINUOUS
62
  7
10
1077.273
20
383.416
30
0.0
40
3.685
50
421.262329
51
512.376709
0
ARC
5
24f8
8
0-0
6
CONTINUOUS
62
  7
10
1079.095
20
382.462
30
0.0
40
5.741
50
512.376648
51
187.461929
0
ARC
5
24f9
8
0-0
6
CONTINUOUS
62
  7
10
1085.071
20
383.245
30
0.0
40
11.768
50
187.461960
51
238.977005
0
ARC
5
24fa
8
0-0
6
CONTINUOUS
62
  7
10
1077.041
20
383.327
30
0.0
40
1.197
50
399.975403
51
482.216736
0
ARC
5
24fb
8
0-0
6
CONTINUOUS
62
  7
10
1077.518
20
382.571
30
0.0
40
2.091
50
482.216675
51
526.707397
0
ARC
5
24fc
8
0-0
6
CONTINUOUS
62
  7
10
1084.890
20
380.829
30
0.0
40
9.666
50
526.707397
51
232.500748
0
ARC
5
24fd
8
0-0
6
CONTINUOUS
62
  7
10
1062.443
20
385.313
30
0.0
40
1.059
50
255.405319
51
469.000061
0
ARC
5
24fe
8
0-0
6
CONTINUOUS
62
  7
10
1063.500
20
389.375
30
0.0
40
5.256
50
222.158081
51
255.405624
0
ARC
5
24ff
8
0-0
6
CONTINUOUS
62
  7
10
1061.644
20
387.694
30
0.0
40
2.752
50
451.915222
51
222.157867
0
ARC
5
2500
8
0-0
6
CONTINUOUS
62
  7
10
1061.789
20
383.364
30
0.0
40
7.085
50
395.551270
51
451.915405
0
ARC
5
2501
8
0-0
6
CONTINUOUS
62
  7
10
1063.677
20
387.230
30
0.0
40
1.825
50
443.299255
51
210.080750
0
ARC
5
2502
8
0-0
6
CONTINUOUS
62
  7
10
1063.066
20
382.020
30
0.0
40
7.070
50
410.598389
51
443.299438
0
ARC
5
2503
8
0-0
6
CONTINUOUS
62
  7
10
1066.893
20
376.490
30
0.0
40
1.732
50
294.768982
51
434.759949
0
ARC
5
2504
8
0-0
6
CONTINUOUS
62
  7
10
1066.700
20
376.908
30
0.0
40
2.193
50
192.102325
51
294.769501
0
ARC
5
2505
8
0-0
6
CONTINUOUS
62
  7
10
1070.343
20
377.690
30
0.0
40
5.920
50
516.475830
51
192.102158
0
ARC
5
2506
8
0-0
6
CONTINUOUS
62
  7
10
1067.273
20
379.027
30
0.0
40
2.570
50
444.282959
51
516.476013
0
ARC
5
2507
8
0-0
6
CONTINUOUS
62
  7
10
1066.854
20
374.849
30
0.0
40
6.768
50
405.683929
51
444.283142
0
ARC
5
2508
8
0-0
6
CONTINUOUS
62
  7
10
1070.186
20
377.098
30
0.0
40
2.946
50
421.705231
51
518.859863
0
ARC
5
2509
8
0-0
6
CONTINUOUS
62
  7
10
1052.660
20
380.120
30
0.0
40
1.964
50
258.571716
51
345.439056
0
ARC
5
250a
8
0-0
6
CONTINUOUS
62
  7
10
1053.131
20
382.447
30
0.0
40
4.339
50
535.662354
51
258.571350
0
ARC
5
250b
8
0-0
6
CONTINUOUS
62
  7
10
1053.899
20
382.389
30
0.0
40
5.109
50
508.401428
51
535.662354
0
ARC
5
250c
8
0-0
6
CONTINUOUS
62
  7
10
1052.732
20
383.107
30
0.0
40
3.739
50
463.837708
51
508.401367
0
ARC
5
250d
8
0-0
6
CONTINUOUS
62
  7
10
1055.493
20
371.896
30
0.0
40
15.285
50
452.101135
51
463.837769
0
ARC
5
250e
8
0-0
6
CONTINUOUS
62
  7
10
1056.156
20
381.678
30
0.0
40
5.627
50
462.552185
51
512.675476
0
ARC
5
250f
8
0-0
6
CONTINUOUS
62
  7
10
1052.832
20
383.396
30
0.0
40
1.885
50
512.674988
51
225.237930
0
ARC
5
2510
8
0-0
6
CONTINUOUS
62
  7
10
1052.494
20
380.163
30
0.0
40
2.137
50
345.439087
51
477.587036
0
ARC
5
2511
8
0-0
6
CONTINUOUS
62
  7
10
1041.606
20
392.544
30
0.0
40
2.554
50
315.394531
51
375.535339
0
ARC
5
2512
8
0-0
6
CONTINUOUS
62
  7
10
1041.105
20
392.405
30
0.0
40
3.073
50
375.535278
51
464.216644
0
ARC
5
2513
8
0-0
6
CONTINUOUS
62
  7
10
1041.269
20
391.759
30
0.0
40
3.740
50
464.216553
51
510.594666
0
ARC
5
2514
8
0-0
6
CONTINUOUS
62
  7
10
1041.741
20
391.492
30
0.0
40
4.282
50
510.594452
51
181.330994
0
ARC
5
2515
8
0-0
6
CONTINUOUS
62
  7
10
1071.835
20
392.191
30
0.0
40
34.384
50
181.330978
51
184.392944
0
ARC
5
2516
8
0-0
6
CONTINUOUS
62
  7
10
1041.333
20
389.848
30
0.0
40
3.792
50
184.393143
51
227.902039
0
ARC
5
2517
8
0-0
6
CONTINUOUS
62
  7
10
1040.598
20
389.035
30
0.0
40
2.695
50
227.902145
51
281.396301
0
ARC
5
2518
8
0-0
6
CONTINUOUS
62
  7
10
1039.748
20
393.251
30
0.0
40
6.996
50
281.396362
51
302.586182
0
ARC
5
2519
8
0-0
6
CONTINUOUS
62
  7
10
1041.833
20
390.081
30
0.0
40
3.203
50
226.212494
51
301.698792
0
ARC
5
251a
8
0-0
6
CONTINUOUS
62
  7
10
1042.427
20
391.734
30
0.0
40
1.401
50
189.258453
51
315.394592
0
ARC
5
251b
8
0-0
6
CONTINUOUS
62
  7
10
1041.120
20
389.337
30
0.0
40
2.173
50
451.983948
51
226.212341
0
ARC
5
251c
8
0-0
6
CONTINUOUS
62
  7
10
1043.081
20
383.827
30
0.0
40
3.677
50
329.772217
51
390.227356
0
ARC
5
251d
8
0-0
6
CONTINUOUS
62
  7
10
1049.436
20
383.827
30
0.0
40
3.677
50
509.772644
51
210.227783
0
CIRCLE
5
251e
8
0-0
6
CONTINUOUS
62
  7
10
1048.552
20
400.544
30
0.0
40
1.500
0
CIRCLE
5
251f
8
0-0
6
CONTINUOUS
62
  7
10
1032.302
20
405.136
30
0.0
40
1.500
0
CIRCLE
5
2520
8
0-0
6
CONTINUOUS
62
  7
10
1064.802
20
396.985
30
0.0
40
1.500
0
CIRCLE
5
2521
8
0-0
6
CONTINUOUS
62
  7
10
1081.052
20
394.419
30
0.0
40
1.500
0
CIRCLE
5
2522
8
0-0
6
CONTINUOUS
62
  7
10
1097.302
20
392.820
30
0.0
40
1.500
0
CIRCLE
5
2523
8
0-0
6
CONTINUOUS
62
  7
10
1113.552
20
392.169
30
0.0
40
1.500
0
CIRCLE
5
2524
8
0-0
6
CONTINUOUS
62
  7
10
1129.802
20
392.462
30
0.0
40
1.500
0
CIRCLE
5
2525
8
0-0
6
CONTINUOUS
62
  7
10
1146.052
20
393.700
30
0.0
40
1.500
0
CIRCLE
5
2526
8
0-0
6
CONTINUOUS
62
  7
10
1162.302
20
395.897
30
0.0
40
1.500
0
CIRCLE
5
2527
8
0-0
6
CONTINUOUS
62
  7
10
1162.302
20
385.766
30
0.0
40
1.500
0
CIRCLE
5
2528
8
0-0
6
CONTINUOUS
62
  7
10
1162.302
20
375.896
30
0.0
40
1.500
0
CIRCLE
5
2529
8
0-0
6
CONTINUOUS
62
  7
10
1146.052
20
371.655
30
0.0
40
1.500
0
CIRCLE
5
252a
8
0-0
6
CONTINUOUS
62
  7
10
1129.802
20
368.763
30
0.0
40
1.500
0
CIRCLE
5
252b
8
0-0
6
CONTINUOUS
62
  7
10
1113.552
20
367.163
30
0.0
40
1.500
0
CIRCLE
5
252c
8
0-0
6
CONTINUOUS
62
  7
10
1097.302
20
366.826
30
0.0
40
1.500
0
CIRCLE
5
252d
8
0-0
6
CONTINUOUS
62
  7
10
1081.052
20
367.746
30
0.0
40
1.500
0
CIRCLE
5
252e
8
0-0
6
CONTINUOUS
62
  7
10
1064.802
20
369.940
30
0.0
40
1.500
0
CIRCLE
5
252f
8
0-0
6
CONTINUOUS
62
  7
10
1048.552
20
373.448
30
0.0
40
1.500
0
CIRCLE
5
2530
8
0-0
6
CONTINUOUS
62
  7
10
1032.302
20
378.341
30
0.0
40
1.500
0
CIRCLE
5
2531
8
0-0
6
CONTINUOUS
62
  7
10
1032.302
20
391.012
30
0.0
40
1.500
0
CIRCLE
5
2532
8
0-0
6
CONTINUOUS
62
  7
10
1043.941
20
987.720
30
0.0
40
3.000
0
CIRCLE
5
2533
8
0-0
6
CONTINUOUS
62
  7
10
1143.941
20
987.720
30
0.0
40
3.000
0
ARC
5
2534
8
0-0
6
CONTINUOUS
62
  7
10
900.310
20
746.119
30
0.0
40
33.702
50
307.745422
51
335.349304
0
CIRCLE
5
2535
8
0-0
6
CONTINUOUS
62
  7
10
972.941
20
825.720
30
0.0
40
3.000
0
CIRCLE
5
2536
8
0-0
6
CONTINUOUS
62
  7
10
972.941
20
801.720
30
0.0
40
3.000
0
ARC
5
2537
8
0-0
6
CONTINUOUS
62
  7
10
1116.031
20
665.633
30
0.0
40
263.751
50
245.991013
51
295.828491
0
ARC
5
2538
8
0-0
6
CONTINUOUS
62
  7
10
1098.445
20
635.714
30
0.0
40
278.957
50
248.282578
51
298.357300
0
ARC
5
2539
8
0-0
6
CONTINUOUS
62
  7
10
1628.454
20
746.862
30
0.0
40
35.204
50
463.367249
51
183.489578
0
ARC
5
253a
8
0-0
6
CONTINUOUS
62
  7
10
1607.915
20
715.560
30
0.0
40
32.610
50
476.595825
51
539.719482
0
CIRCLE
5
253b
8
ADD_LINE
6
HIDDEN
62
  3
10
1098.649
20
356.757
30
0.0
40
3.000
0
TEXT
5
253c
100
AcDbEntity
8
0-0
62
7
100
AcDbText
10
623.799
20
1139.396
30
0.0
40
9.750
41
0.800
50
0.000
1
18
100
AcDbText
0
TEXT
5
253d
100
AcDbEntity
8
0-0
62
7
100
AcDbText
10
1071.566
20
1139.396
30
0.0
40
9.750
41
0.800
50
0.000
1
300
100
AcDbText
0
TEXT
5
253e
100
AcDbEntity
8
0-0
62
7
100
AcDbText
10
1556.565
20
1139.396
30
0.0
40
9.750
41
0.800
50
0.000
1
65
100
AcDbText
0
TEXT
5
253f
100
AcDbEntity
8
0-0
62
7
100
AcDbText
10
947.191
20
1094.801
30
0.0
40
9.750
41
0.800
50
0.000
1
45
100
AcDbText
0
TEXT
5
2540
100
AcDbEntity
8
0-0
62
7
100
AcDbText
10
610.299
20
604.261
30
0.0
40
9.750
41
0.800
50
0.000
1
45
100
AcDbText
0
TEXT
5
2541
100
AcDbEntity
8
0-0
62
7
100
AcDbText
10
1071.566
20
604.261
30
0.0
40
9.750
41
0.800
50
0.000
1
300
100
AcDbText
0
TEXT
5
2542
100
AcDbEntity
8
0-0
62
7
100
AcDbText
10
1569.065
20
604.261
30
0.0
40
9.750
41
0.800
50
0.000
1
90
100
AcDbText
0
TEXT
5
2543
100
AcDbEntity
8
0-0
62
7
100
AcDbText
10
1071.566
20
168.040
30
0.0
40
9.750
41
0.800
50
0.000
1
300
100
AcDbText
0
TEXT
5
2544
100
AcDbEntity
8
0-0
62
7
100
AcDbText
10
1408.479
20
850.845
30
0.0
40
9.750
41
0.800
50
90.000
1
289
100
AcDbText
0
TEXT
5
2545
100
AcDbEntity
8
0-0
62
7
100
AcDbText
10
1330.716
20
854.844
30
0.0
40
9.750
41
0.800
50
90.000
1
297
100
AcDbText
0
TEXT
5
2546
100
AcDbEntity
8
0-0
62
7
100
AcDbText
10
1296.948
20
1005.594
30
0.0
40
9.750
41
0.800
50
90.000
1
8
100
AcDbText
0
POINT
5
2547
8
0-0
62
  7
10
621.049
20
1136.896
30
0.0
0
POINT
5
2548
8
0-0
62
  7
10
639.049
20
1136.896
30
0.0
0
POINT
5
2549
8
0-0
62
  7
10
930.941
20
1136.896
30
0.0
0
POINT
5
254a
8
0-0
62
  7
10
1230.941
20
1136.896
30
0.0
0
POINT
5
254b
8
0-0
62
  7
10
1530.315
20
1136.896
30
0.0
0
POINT
5
254c
8
0-0
62
  7
10
1595.315
20
1136.896
30
0.0
0
POINT
5
254d
8
0-0
62
  7
10
930.941
20
1092.301
30
0.0
0
POINT
5
254e
8
0-0
62
  7
10
975.941
20
1092.301
30
0.0
0
POINT
5
254f
8
0-0
62
  7
10
594.049
20
601.761
30
0.0
0
POINT
5
2550
8
0-0
62
  7
10
639.049
20
601.761
30
0.0
0
POINT
5
2551
8
0-0
62
  7
10
930.941
20
601.761
30
0.0
0
POINT
5
2552
8
0-0
62
  7
10
1230.941
20
601.761
30
0.0
0
POINT
5
2553
8
0-0
62
  7
10
1530.315
20
601.761
30
0.0
0
POINT
5
2554
8
0-0
62
  7
10
1620.315
20
601.761
30
0.0
0
POINT
5
2555
8
0-0
62
  7
10
930.941
20
165.540
30
0.0
0
POINT
5
2556
8
0-0
62
  7
10
1230.941
20
165.540
30
0.0
0
POINT
5
2557
8
0-0
62
  7
10
1410.979
20
1004.720
30
0.0
0
POINT
5
2558
8
0-0
62
  7
10
1410.979
20
715.720
30
0.0
0
POINT
5
2559
8
0-0
62
  7
10
1333.216
20
1012.720
30
0.0
0
POINT
5
255a
8
0-0
62
  7
10
1333.216
20
715.720
30
0.0
0
POINT
5
255b
8
0-0
62
  7
10
1299.448
20
1012.720
30
0.0
0
POINT
5
255c
8
0-0
62
  7
10
1299.448
20
1004.720
30
0.0
0
ENDSEC
0
EOF
