0
SECTION
2
HEADER
  9
$EXTMIN
10
0
20
0
30
0
  9
$EXTMAX
10
1733.754
20
1149.797
30
0
  9
$LTSCALE
40
5.000
  9
$DIMSCALE
40
5.000
  9
$PDMODE
70
0
  9
$PDSIZE
40
40
0
ENDSEC
0
SECTION
2
TABLES
0
TABLE
2
LTYPE
70
9
0
LTYPE
5
1f4
2
CONTINUOUS
70
0
3
実線
72
65
73
0
40
0.0
0
LTYPE
5
1f5
2
DOT
70
0
3
--  --  --  --  --  --  --  --     
72
65
73
2
40
5.000
49
1.000
49
-4.000
0
LTYPE
5
1f6
2
DASHED
70
0
3
----    ----    ----    ----    
72
65
73
2
40
5.000
49
2.000
49
-3.000
0
LTYPE
5
1f7
2
DASHED2
70
0
3
------  ------  ------  ------ 
72
65
73
2
40
10.000
49
4.000
49
-6.000
0
LTYPE
5
1f8
2
CENTER
70
0
3
----- - ----- - ----- - ----- - 
72
65
73
4
40
9.000
49
6.000
49
-1.000
49
1.000
49
-1.000
0
LTYPE
5
1f9
2
CENTER2
70
0
3
----------  --  ----------  -- 
72
65
73
4
40
18.000
49
12.000
49
-2.000
49
2.000
49
-2.000
0
LTYPE
5
1fa
2
PHANTOM
70
0
3
--- - - --- - - --- - - --- - -
72
65
73
6
40
10.000
49
5.000
49
-1.000
49
1.000
49
-1.000
49
1.000
49
-1.000
0
LTYPE
5
1fb
2
PHANTOM2
70
0
3
--------  -  -  --------  -  -
72
65
73
6
40
16.000
49
6.000
49
-2.000
49
2.000
49
-2.000
49
2.000
49
-2.000
0
LTYPE
5
1fc
2
HIDDEN
70
0
3
-   -   -   -   -   -   -   -   
72
65
73
2
40
2.500
49
0.500
49
-2.000
0
ENDTAB
0
TABLE
2
STYLE
70
1
0
STYLE
5
1fd
100
AcDbSymbolTableRecord
100
AcDbTextStyleTableRecord
2
STANDARD
70
0
40
0.0
41
1.0
50
0.0
71
0
42
0.0
3
txt.shx
4
extfont.shx
0
STYLE
5
1fe
100
AcDbSymbolTableRecord
100
AcDbTextStyleTableRecord
2
TATEGAKI
70
4
40
0.0
41
1.0
50
0.0
71
0
42
0.0
3
txt.shx
4
extfont.shx
0
STYLE
5
1ff
100
AcDbSymbolTableRecord
100
AcDbTextStyleTableRecord
2
MT
70
0
40
0.0
41
1.0
50
0.0
71
0
42
0.0
3
MS Mincho
4

0
STYLE
5
200
100
AcDbSymbolTableRecord
100
AcDbTextStyleTableRecord
2
TMT
70
4
40
0.0
41
1.0
50
0.0
71
0
42
0.0
3
@MS Mincho
4

0
ENDTAB
0
TABLE
2
LAYER
5
4c4
100
AcDbSymbolTable
70
10
0
LAYER
5
4c5
100
AcDbSymbolTableRecord
100
AcDbLayerTableRecord
2
0
70
64
62
  7
  6
CONTINUOUS
0
LAYER
5
4c6
100
AcDbSymbolTableRecord
100
AcDbLayerTableRecord
2
0-0
70
64
62
  7
  6
CONTINUOUS
0
LAYER
5
4c7
100
AcDbSymbolTableRecord
100
AcDbLayerTableRecord
2
ADD_LINE
70
64
62
  -7
  6
CONTINUOUS
0
ENDTAB
0
ENDSEC
0
SECTION
2
ENTITIES
0
LINE
5
4c8
8
0-0
6
CONTINUOUS
62
  7
10
879.730
20
735.689
30
0.0
11
879.730
21
942.689
31
0.0
0
LINE
5
4c9
8
0-0
6
CONTINUOUS
62
  7
10
879.730
20
942.689
30
0.0
11
1164.730
21
942.689
31
0.0
0
LINE
5
4ca
8
0-0
6
CONTINUOUS
62
  7
10
1164.730
20
942.689
30
0.0
11
1164.730
21
735.689
31
0.0
0
LINE
5
4cb
8
0-0
6
CONTINUOUS
62
  7
10
1164.730
20
735.689
30
0.0
11
879.730
21
735.689
31
0.0
0
LINE
5
4cc
8
0-0
6
CONTINUOUS
62
  7
10
1151.730
20
925.189
30
0.0
11
1156.730
21
925.189
31
0.0
0
LINE
5
4cd
8
0-0
6
CONTINUOUS
62
  7
10
1151.730
20
925.189
30
0.0
11
1151.730
21
753.189
31
0.0
0
LINE
5
4ce
8
0-0
6
CONTINUOUS
62
  7
10
1151.730
20
753.189
30
0.0
11
1156.730
21
753.189
31
0.0
0
LINE
5
4cf
8
0-0
6
CONTINUOUS
62
  7
10
1156.730
20
925.189
30
0.0
11
1156.730
21
753.189
31
0.0
0
LINE
5
4d0
8
0-0
6
CONTINUOUS
62
  7
10
924.730
20
735.689
30
0.0
11
924.730
21
942.689
31
0.0
0
LINE
5
4d1
8
ADD_LINE
6
HIDDEN
62
  3
10
859.739
20
839.189
30
0.0
11
1231.452
21
839.189
31
0.0
0
LINE
5
4d2
8
0-0
6
CONTINUOUS
62
  7
10
879.730
20
496.622
30
0.0
11
924.730
21
496.622
31
0.0
0
LINE
5
4d3
8
0-0
6
CONTINUOUS
62
  7
10
901.730
20
446.622
30
0.0
11
901.730
21
421.622
31
0.0
0
LINE
5
4d4
8
0-0
6
CONTINUOUS
62
  7
10
879.730
20
446.622
30
0.0
11
901.730
21
446.622
31
0.0
0
LINE
5
4d5
8
0-0
6
CONTINUOUS
62
  7
10
924.730
20
496.622
30
0.0
11
924.730
21
448.622
31
0.0
0
LINE
5
4d6
8
0-0
6
CONTINUOUS
62
  7
10
901.730
20
421.622
30
0.0
11
1164.730
21
421.622
31
0.0
0
LINE
5
4d7
8
0-0
6
CONTINUOUS
62
  7
10
1164.730
20
448.622
30
0.0
11
1164.730
21
421.622
31
0.0
0
LINE
5
4d8
8
0-0
6
CONTINUOUS
62
  7
10
924.730
20
448.622
30
0.0
11
1164.730
21
448.622
31
0.0
0
LINE
5
4d9
8
0-0
6
CONTINUOUS
62
  7
10
1151.730
20
479.622
30
0.0
11
1151.730
21
461.622
31
0.0
0
LINE
5
4da
8
0-0
6
CONTINUOUS
62
  7
10
1151.730
20
461.622
30
0.0
11
1156.730
21
461.622
31
0.0
0
LINE
5
4db
8
0-0
6
CONTINUOUS
62
  7
10
1156.730
20
479.622
30
0.0
11
1156.730
21
461.622
31
0.0
0
LINE
5
4dc
8
0-0
6
CONTINUOUS
62
  7
10
924.730
20
479.622
30
0.0
11
1151.730
21
479.622
31
0.0
0
LINE
5
4dd
8
0-0
6
CONTINUOUS
62
  7
10
879.730
20
496.622
30
0.0
11
879.730
21
463.768
31
0.0
0
LINE
5
4de
8
0-0
6
CONTINUOUS
62
  7
10
879.730
20
463.768
30
0.0
11
879.730
21
446.622
31
0.0
0
LINE
5
4df
8
0-0
6
CONTINUOUS
62
  7
10
879.730
20
468.622
30
0.0
11
924.730
21
468.622
31
0.0
0
LINE
5
4e0
8
0-0
6
CONTINUOUS
62
  7
10
1156.730
20
479.622
30
0.0
11
1164.730
21
479.622
31
0.0
0
LINE
5
4e1
8
0-0
6
CONTINUOUS
62
  7
10
1164.730
20
479.622
30
0.0
11
1164.730
21
448.622
31
0.0
0
LINE
5
4e2
8
0-0
6
CONTINUOUS
62
  7
10
1404.689
20
940.189
30
0.0
11
1431.689
21
942.689
31
0.0
0
LINE
5
4e3
8
0-0
6
CONTINUOUS
62
  7
10
1404.689
20
738.189
30
0.0
11
1431.689
21
735.689
31
0.0
0
LINE
5
4e4
8
0-0
6
CONTINUOUS
62
  7
10
1431.689
20
942.689
30
0.0
11
1427.689
21
934.689
31
0.0
0
LINE
5
4e5
8
0-0
6
CONTINUOUS
62
  7
10
1427.689
20
743.689
30
0.0
11
1431.689
21
735.689
31
0.0
0
LINE
5
4e6
8
0-0
6
CONTINUOUS
62
  7
10
644.230
20
940.189
30
0.0
11
617.230
21
942.689
31
0.0
0
LINE
5
4e7
8
0-0
6
CONTINUOUS
62
  7
10
644.230
20
738.189
30
0.0
11
617.230
21
735.689
31
0.0
0
LINE
5
4e8
8
0-0
6
CONTINUOUS
62
  7
10
617.230
20
942.689
30
0.0
11
621.230
21
934.689
31
0.0
0
LINE
5
4e9
8
0-0
6
CONTINUOUS
62
  7
10
621.230
20
743.689
30
0.0
11
617.230
21
735.689
31
0.0
0
LINE
5
4ea
8
0-0
6
CONTINUOUS
62
  7
10
644.230
20
940.189
30
0.0
11
666.230
21
938.152
31
0.0
0
LINE
5
4eb
8
0-0
6
CONTINUOUS
62
  7
10
644.230
20
738.189
30
0.0
11
666.230
21
740.226
31
0.0
0
LINE
5
4ec
8
0-0
6
CONTINUOUS
62
  7
10
617.230
20
1147.297
30
0.0
11
644.230
21
1147.297
31
0.0
0
LINE
5
4ed
8
0-0
6
CONTINUOUS
62
  7
10
617.230
20
1001.351
30
0.0
11
617.230
21
1147.297
31
0.0
0
LINE
5
4ee
8
0-0
6
CONTINUOUS
62
  7
10
644.230
20
1001.351
30
0.0
11
644.230
21
1147.297
31
0.0
0
LINE
5
4ef
8
0-0
6
CONTINUOUS
62
  7
10
879.730
20
1147.297
30
0.0
11
1164.730
21
1147.297
31
0.0
0
LINE
5
4f0
8
0-0
6
CONTINUOUS
62
  7
10
879.730
20
1001.351
30
0.0
11
879.730
21
1147.297
31
0.0
0
LINE
5
4f1
8
0-0
6
CONTINUOUS
62
  7
10
1164.730
20
1001.351
30
0.0
11
1164.730
21
1147.297
31
0.0
0
LINE
5
4f2
8
0-0
6
CONTINUOUS
62
  7
10
1404.689
20
1147.297
30
0.0
11
1431.689
21
1147.297
31
0.0
0
LINE
5
4f3
8
0-0
6
CONTINUOUS
62
  7
10
1404.689
20
1001.351
30
0.0
11
1404.689
21
1147.297
31
0.0
0
LINE
5
4f4
8
0-0
6
CONTINUOUS
62
  7
10
1431.689
20
1001.351
30
0.0
11
1431.689
21
1147.297
31
0.0
0
LINE
5
4f5
8
0-0
6
CONTINUOUS
62
  7
10
879.730
20
1090.541
30
0.0
11
924.730
21
1090.541
31
0.0
0
LINE
5
4f6
8
0-0
6
CONTINUOUS
62
  7
10
879.730
20
1001.351
30
0.0
11
879.730
21
1090.541
31
0.0
0
LINE
5
4f7
8
0-0
6
CONTINUOUS
62
  7
10
924.730
20
1001.351
30
0.0
11
924.730
21
1090.541
31
0.0
0
LINE
5
4f8
8
0-0
6
CONTINUOUS
62
  7
10
924.730
20
1090.541
30
0.0
11
1164.730
21
1090.541
31
0.0
0
LINE
5
4f9
8
0-0
6
CONTINUOUS
62
  7
10
1164.730
20
1001.351
30
0.0
11
1164.730
21
1090.541
31
0.0
0
LINE
5
4fa
8
0-0
6
CONTINUOUS
62
  7
10
879.730
20
263.514
30
0.0
11
901.730
21
263.514
31
0.0
0
LINE
5
4fb
8
0-0
6
CONTINUOUS
62
  7
10
879.730
20
368.919
30
0.0
11
879.730
21
263.514
31
0.0
0
LINE
5
4fc
8
0-0
6
CONTINUOUS
62
  7
10
901.730
20
368.919
30
0.0
11
901.730
21
263.514
31
0.0
0
LINE
5
4fd
8
0-0
6
CONTINUOUS
62
  7
10
901.730
20
263.514
30
0.0
11
1164.730
21
263.514
31
0.0
0
LINE
5
4fe
8
0-0
6
CONTINUOUS
62
  7
10
1164.730
20
368.919
30
0.0
11
1164.730
21
263.514
31
0.0
0
LINE
5
4ff
8
0-0
6
CONTINUOUS
62
  7
10
1273.581
20
942.689
30
0.0
11
1273.581
21
735.689
31
0.0
0
LINE
5
500
8
0-0
6
CONTINUOUS
62
  7
10
1216.824
20
942.689
30
0.0
11
1273.581
21
942.689
31
0.0
0
LINE
5
501
8
0-0
6
CONTINUOUS
62
  7
10
1216.824
20
735.689
30
0.0
11
1273.581
21
735.689
31
0.0
0
LINE
5
502
8
0-0
6
CONTINUOUS
62
  7
10
1273.581
20
421.622
30
0.0
11
1273.581
21
448.622
31
0.0
0
LINE
5
503
8
0-0
6
CONTINUOUS
62
  7
10
1216.824
20
421.622
30
0.0
11
1273.581
21
421.622
31
0.0
0
LINE
5
504
8
0-0
6
CONTINUOUS
62
  7
10
1216.824
20
448.622
30
0.0
11
1273.581
21
448.622
31
0.0
0
LINE
5
505
8
0-0
6
CONTINUOUS
62
  7
10
1273.581
20
448.622
30
0.0
11
1273.581
21
479.622
31
0.0
0
LINE
5
506
8
0-0
6
CONTINUOUS
62
  7
10
1216.824
20
479.622
30
0.0
11
1273.581
21
479.622
31
0.0
0
LINE
5
507
8
0-0
6
CONTINUOUS
62
  7
10
1373.689
20
636.487
30
0.0
11
1431.689
21
636.487
31
0.0
0
LINE
5
508
8
0-0
6
CONTINUOUS
62
  7
10
1373.689
20
689.189
30
0.0
11
1373.689
21
636.487
31
0.0
0
LINE
5
509
8
0-0
6
CONTINUOUS
62
  7
10
1431.689
20
689.189
30
0.0
11
1431.689
21
636.487
31
0.0
0
LINE
5
50a
8
0-0
6
CONTINUOUS
62
  7
10
617.230
20
636.487
30
0.0
11
692.230
21
636.487
31
0.0
0
LINE
5
50b
8
0-0
6
CONTINUOUS
62
  7
10
617.230
20
689.189
30
0.0
11
617.230
21
636.487
31
0.0
0
LINE
5
50c
8
0-0
6
CONTINUOUS
62
  7
10
692.230
20
689.189
30
0.0
11
692.230
21
636.487
31
0.0
0
CIRCLE
5
50d
8
0-0
6
CONTINUOUS
62
  7
10
969.730
20
851.689
30
0.0
40
3.000
0
CIRCLE
5
50e
8
0-0
6
CONTINUOUS
62
  7
10
969.730
20
826.689
30
0.0
40
3.000
0
ARC
5
50f
8
0-0
6
CONTINUOUS
62
  7
10
1154.230
20
481.477
30
0.0
40
4.158
50
233.045044
51
306.954956
0
ARC
5
510
8
0-0
6
CONTINUOUS
62
  7
10
1553.721
20
839.189
30
0.0
40
180.032
50
145.874268
51
214.125732
0
ARC
5
511
8
0-0
6
CONTINUOUS
62
  7
10
1532.436
20
839.189
30
0.0
40
141.747
50
137.643768
51
222.356232
0
ARC
5
512
8
0-0
6
CONTINUOUS
62
  7
10
495.198
20
839.189
30
0.0
40
180.032
50
325.874268
51
394.125732
0
ARC
5
513
8
0-0
6
CONTINUOUS
62
  7
10
516.483
20
839.189
30
0.0
40
141.747
50
317.643768
51
402.356232
0
ARC
5
514
8
0-0
6
CONTINUOUS
62
  7
10
490.890
20
839.189
30
0.0
40
201.340
50
330.559326
51
29.440674
0
CIRCLE
5
515
8
ADD_LINE
6
HIDDEN
62
  3
10
879.730
20
839.189
30
0.0
40
3.000
0
TEXT
5
516
100
AcDbEntity
8
0-0
62
7
100
AcDbText
10
624.480
20
1149.797
30
0.0
40
9.750
41
0.800
50
0.000
1
27
100
AcDbText
0
TEXT
5
517
100
AcDbEntity
8
0-0
62
7
100
AcDbText
10
1012.855
20
1149.797
30
0.0
40
9.750
41
0.800
50
0.000
1
285
100
AcDbText
0
TEXT
5
518
100
AcDbEntity
8
0-0
62
7
100
AcDbText
10
1411.939
20
1149.797
30
0.0
40
9.750
41
0.800
50
0.000
1
27
100
AcDbText
0
TEXT
5
519
100
AcDbEntity
8
0-0
62
7
100
AcDbText
10
895.980
20
1093.041
30
0.0
40
9.750
41
0.800
50
0.000
1
45
100
AcDbText
0
TEXT
5
51a
100
AcDbEntity
8
0-0
62
7
100
AcDbText
10
1035.355
20
1093.041
30
0.0
40
9.750
41
0.800
50
0.000
1
240
100
AcDbText
0
TEXT
5
51b
100
AcDbEntity
8
0-0
62
7
100
AcDbText
10
884.480
20
266.014
30
0.0
40
9.750
41
0.800
50
0.000
1
22
100
AcDbText
0
TEXT
5
51c
100
AcDbEntity
8
0-0
62
7
100
AcDbText
10
1023.855
20
266.014
30
0.0
40
9.750
41
0.800
50
0.000
1
263
100
AcDbText
0
TEXT
5
51d
100
AcDbEntity
8
0-0
62
7
100
AcDbText
10
1271.081
20
829.814
30
0.0
40
9.750
41
0.800
50
90.000
1
207
100
AcDbText
0
TEXT
5
51e
100
AcDbEntity
8
0-0
62
7
100
AcDbText
10
1271.081
20
428.872
30
0.0
40
9.750
41
0.800
50
90.000
1
27
100
AcDbText
0
TEXT
5
51f
100
AcDbEntity
8
0-0
62
7
100
AcDbText
10
1271.081
20
457.872
30
0.0
40
9.750
41
0.800
50
90.000
1
31
100
AcDbText
0
TEXT
5
520
100
AcDbEntity
8
0-0
62
7
100
AcDbText
10
1396.439
20
638.987
30
0.0
40
9.750
41
0.800
50
0.000
1
58
100
AcDbText
0
TEXT
5
521
100
AcDbEntity
8
0-0
62
7
100
AcDbText
10
648.480
20
638.987
30
0.0
40
9.750
41
0.800
50
0.000
1
75
100
AcDbText
0
POINT
5
522
8
0-0
62
  7
10
617.230
20
1147.297
30
0.0
0
POINT
5
523
8
0-0
62
  7
10
644.230
20
1147.297
30
0.0
0
POINT
5
524
8
0-0
62
  7
10
879.730
20
1147.297
30
0.0
0
POINT
5
525
8
0-0
62
  7
10
1164.730
20
1147.297
30
0.0
0
POINT
5
526
8
0-0
62
  7
10
1404.689
20
1147.297
30
0.0
0
POINT
5
527
8
0-0
62
  7
10
1431.689
20
1147.297
30
0.0
0
POINT
5
528
8
0-0
62
  7
10
879.730
20
1090.541
30
0.0
0
POINT
5
529
8
0-0
62
  7
10
924.730
20
1090.541
30
0.0
0
POINT
5
52a
8
0-0
62
  7
10
1164.730
20
1090.541
30
0.0
0
POINT
5
52b
8
0-0
62
  7
10
879.730
20
263.514
30
0.0
0
POINT
5
52c
8
0-0
62
  7
10
901.730
20
263.514
30
0.0
0
POINT
5
52d
8
0-0
62
  7
10
1164.730
20
263.514
30
0.0
0
POINT
5
52e
8
0-0
62
  7
10
1273.581
20
942.689
30
0.0
0
POINT
5
52f
8
0-0
62
  7
10
1273.581
20
735.689
30
0.0
0
POINT
5
530
8
0-0
62
  7
10
1273.581
20
421.622
30
0.0
0
POINT
5
531
8
0-0
62
  7
10
1273.581
20
448.622
30
0.0
0
POINT
5
532
8
0-0
62
  7
10
1273.581
20
479.622
30
0.0
0
POINT
5
533
8
0-0
62
  7
10
1373.689
20
636.487
30
0.0
0
POINT
5
534
8
0-0
62
  7
10
1431.689
20
636.487
30
0.0
0
POINT
5
535
8
0-0
62
  7
10
617.230
20
636.487
30
0.0
0
POINT
5
536
8
0-0
62
  7
10
692.230
20
636.487
30
0.0
0
ENDSEC
0
EOF
