0
SECTION
2
HEADER
  9
$EXTMIN
10
0
20
0
30
0
  9
$EXTMAX
10
1629.257
20
1291.720
30
0
  9
$LTSCALE
40
5.000
  9
$DIMSCALE
40
5.000
  9
$PDMODE
70
0
  9
$PDSIZE
40
40
0
ENDSEC
0
SECTION
2
TABLES
0
TABLE
2
LTYPE
70
9
0
LTYPE
5
1f4
2
CONTINUOUS
70
0
3
実線
72
65
73
0
40
0.0
0
LTYPE
5
1f5
2
DOT
70
0
3
--  --  --  --  --  --  --  --     
72
65
73
2
40
5.000
49
1.000
49
-4.000
0
LTYPE
5
1f6
2
DASHED
70
0
3
----    ----    ----    ----    
72
65
73
2
40
5.000
49
2.000
49
-3.000
0
LTYPE
5
1f7
2
DASHED2
70
0
3
------  ------  ------  ------ 
72
65
73
2
40
10.000
49
4.000
49
-6.000
0
LTYPE
5
1f8
2
CENTER
70
0
3
----- - ----- - ----- - ----- - 
72
65
73
4
40
9.000
49
6.000
49
-1.000
49
1.000
49
-1.000
0
LTYPE
5
1f9
2
CENTER2
70
0
3
----------  --  ----------  -- 
72
65
73
4
40
18.000
49
12.000
49
-2.000
49
2.000
49
-2.000
0
LTYPE
5
1fa
2
PHANTOM
70
0
3
--- - - --- - - --- - - --- - -
72
65
73
6
40
10.000
49
5.000
49
-1.000
49
1.000
49
-1.000
49
1.000
49
-1.000
0
LTYPE
5
1fb
2
PHANTOM2
70
0
3
--------  -  -  --------  -  -
72
65
73
6
40
16.000
49
6.000
49
-2.000
49
2.000
49
-2.000
49
2.000
49
-2.000
0
LTYPE
5
1fc
2
HIDDEN
70
0
3
-   -   -   -   -   -   -   -   
72
65
73
2
40
2.500
49
0.500
49
-2.000
0
ENDTAB
0
TABLE
2
STYLE
70
1
0
STYLE
5
1fd
100
AcDbSymbolTableRecord
100
AcDbTextStyleTableRecord
2
STANDARD
70
0
40
0.0
41
1.0
50
0.0
71
0
42
0.0
3
txt.shx
4
extfont.shx
0
STYLE
5
1fe
100
AcDbSymbolTableRecord
100
AcDbTextStyleTableRecord
2
TATEGAKI
70
4
40
0.0
41
1.0
50
0.0
71
0
42
0.0
3
txt.shx
4
extfont.shx
0
STYLE
5
1ff
100
AcDbSymbolTableRecord
100
AcDbTextStyleTableRecord
2
MT
70
0
40
0.0
41
1.0
50
0.0
71
0
42
0.0
3
MS Mincho
4

0
STYLE
5
200
100
AcDbSymbolTableRecord
100
AcDbTextStyleTableRecord
2
TMT
70
4
40
0.0
41
1.0
50
0.0
71
0
42
0.0
3
@MS Mincho
4

0
ENDTAB
0
TABLE
2
LAYER
5
6d7
100
AcDbSymbolTable
70
10
0
LAYER
5
6d8
100
AcDbSymbolTableRecord
100
AcDbLayerTableRecord
2
0
70
64
62
  7
  6
CONTINUOUS
0
LAYER
5
6d9
100
AcDbSymbolTableRecord
100
AcDbLayerTableRecord
2
0-0
70
64
62
  7
  6
CONTINUOUS
0
LAYER
5
6da
100
AcDbSymbolTableRecord
100
AcDbLayerTableRecord
2
ADD_LINE
70
64
62
  -7
  6
CONTINUOUS
0
ENDTAB
0
ENDSEC
0
SECTION
2
ENTITIES
0
LINE
5
6db
8
0-0
6
CONTINUOUS
62
  7
10
964.865
20
897.973
30
0.0
11
1241.865
21
895.473
31
0.0
0
LINE
5
6dc
8
0-0
6
CONTINUOUS
62
  7
10
1241.865
20
895.473
30
0.0
11
1241.865
21
750.473
31
0.0
0
LINE
5
6dd
8
0-0
6
CONTINUOUS
62
  7
10
964.865
20
747.973
30
0.0
11
1241.865
21
750.473
31
0.0
0
LINE
5
6de
8
0-0
6
CONTINUOUS
62
  7
10
964.865
20
897.973
30
0.0
11
964.865
21
747.973
31
0.0
0
LINE
5
6df
8
0-0
6
CONTINUOUS
62
  7
10
1241.865
20
877.473
30
0.0
11
1271.865
21
857.973
31
0.0
0
LINE
5
6e0
8
0-0
6
CONTINUOUS
62
  7
10
1271.865
20
857.973
30
0.0
11
1271.865
21
787.973
31
0.0
0
LINE
5
6e1
8
0-0
6
CONTINUOUS
62
  7
10
1271.865
20
787.973
30
0.0
11
1241.865
21
768.473
31
0.0
0
LINE
5
6e2
8
0-0
6
CONTINUOUS
62
  7
10
1548.257
20
894.973
30
0.0
11
1543.257
21
875.775
31
0.0
0
LINE
5
6e3
8
0-0
6
CONTINUOUS
62
  7
10
1543.257
20
770.172
30
0.0
11
1548.257
21
750.973
31
0.0
0
LINE
5
6e4
8
0-0
6
CONTINUOUS
62
  7
10
964.865
20
454.081
30
0.0
11
949.186
21
304.903
31
0.0
0
LINE
5
6e5
8
0-0
6
CONTINUOUS
62
  7
10
949.186
20
304.903
30
0.0
11
969.076
21
302.812
31
0.0
0
LINE
5
6e6
8
0-0
6
CONTINUOUS
62
  7
10
977.302
20
381.081
30
0.0
11
969.076
21
302.812
31
0.0
0
LINE
5
6e7
8
0-0
6
CONTINUOUS
62
  7
10
994.864
20
445.081
30
0.0
11
1241.865
21
445.081
31
0.0
0
LINE
5
6e8
8
0-0
6
CONTINUOUS
62
  7
10
977.302
20
381.081
30
0.0
11
1241.865
21
381.081
31
0.0
0
LINE
5
6e9
8
0-0
6
CONTINUOUS
62
  7
10
1241.865
20
445.081
30
0.0
11
1241.865
21
381.081
31
0.0
0
LINE
5
6ea
8
0-0
6
CONTINUOUS
62
  7
10
1241.865
20
391.081
30
0.0
11
1271.865
21
396.081
31
0.0
0
LINE
5
6eb
8
0-0
6
CONTINUOUS
62
  7
10
1271.865
20
416.081
30
0.0
11
1271.865
21
396.081
31
0.0
0
LINE
5
6ec
8
0-0
6
CONTINUOUS
62
  7
10
1241.865
20
430.081
30
0.0
11
1271.865
21
416.081
31
0.0
0
LINE
5
6ed
8
0-0
6
CONTINUOUS
62
  7
10
964.865
20
1175.703
30
0.0
11
949.186
21
1026.524
31
0.0
0
LINE
5
6ee
8
0-0
6
CONTINUOUS
62
  7
10
949.186
20
1026.524
30
0.0
11
969.076
21
1024.434
31
0.0
0
LINE
5
6ef
8
0-0
6
CONTINUOUS
62
  7
10
994.864
20
1166.703
30
0.0
11
1241.865
21
1166.703
31
0.0
0
LINE
5
6f0
8
0-0
6
CONTINUOUS
62
  7
10
1241.865
20
1151.703
30
0.0
11
1271.865
21
1137.703
31
0.0
0
LINE
5
6f1
8
0-0
6
CONTINUOUS
62
  7
10
1217.552
20
1148.703
30
0.0
11
1271.865
21
1123.357
31
0.0
0
LINE
5
6f2
8
0-0
6
CONTINUOUS
62
  7
10
1271.865
20
1137.703
30
0.0
11
1271.865
21
1123.357
31
0.0
0
LINE
5
6f3
8
0-0
6
CONTINUOUS
62
  7
10
1241.865
20
1166.703
30
0.0
11
1241.865
21
1151.703
31
0.0
0
LINE
5
6f4
8
0-0
6
CONTINUOUS
62
  7
10
982.137
20
1148.703
30
0.0
11
969.076
21
1024.434
31
0.0
0
LINE
5
6f5
8
0-0
6
CONTINUOUS
62
  7
10
982.137
20
1148.703
30
0.0
11
1217.552
21
1148.703
31
0.0
0
LINE
5
6f6
8
0-0
6
CONTINUOUS
62
  7
10
834.423
20
897.973
30
0.0
11
834.423
21
747.973
31
0.0
0
LINE
5
6f7
8
0-0
6
CONTINUOUS
62
  7
10
915.778
20
897.973
30
0.0
11
834.423
21
897.973
31
0.0
0
LINE
5
6f8
8
0-0
6
CONTINUOUS
62
  7
10
915.778
20
747.973
30
0.0
11
834.423
21
747.973
31
0.0
0
LINE
5
6f9
8
0-0
6
CONTINUOUS
62
  7
10
597.973
20
635.747
30
0.0
11
747.973
21
635.747
31
0.0
0
LINE
5
6fa
8
0-0
6
CONTINUOUS
62
  7
10
597.973
20
704.775
30
0.0
11
597.973
21
635.747
31
0.0
0
LINE
5
6fb
8
0-0
6
CONTINUOUS
62
  7
10
747.973
20
704.775
30
0.0
11
747.973
21
635.747
31
0.0
0
LINE
5
6fc
8
0-0
6
CONTINUOUS
62
  7
10
964.865
20
635.747
30
0.0
11
1241.865
21
635.747
31
0.0
0
LINE
5
6fd
8
0-0
6
CONTINUOUS
62
  7
10
964.865
20
704.775
30
0.0
11
964.865
21
635.747
31
0.0
0
LINE
5
6fe
8
0-0
6
CONTINUOUS
62
  7
10
1241.865
20
704.775
30
0.0
11
1241.865
21
635.747
31
0.0
0
LINE
5
6ff
8
0-0
6
CONTINUOUS
62
  7
10
1241.865
20
635.747
30
0.0
11
1271.865
21
635.747
31
0.0
0
LINE
5
700
8
0-0
6
CONTINUOUS
62
  7
10
1271.865
20
704.775
30
0.0
11
1271.865
21
635.747
31
0.0
0
LINE
5
701
8
0-0
6
CONTINUOUS
62
  7
10
1484.257
20
635.747
30
0.0
11
1548.257
21
635.747
31
0.0
0
LINE
5
702
8
0-0
6
CONTINUOUS
62
  7
10
1484.257
20
704.775
30
0.0
11
1484.257
21
635.747
31
0.0
0
LINE
5
703
8
0-0
6
CONTINUOUS
62
  7
10
1548.257
20
704.775
30
0.0
11
1548.257
21
635.747
31
0.0
0
LINE
5
704
8
0-0
6
CONTINUOUS
62
  7
10
944.586
20
261.140
30
0.0
11
964.476
21
259.049
31
0.0
0
LINE
5
705
8
0-0
6
CONTINUOUS
62
  7
10
947.267
20
286.645
30
0.0
11
944.586
21
261.140
31
0.0
0
LINE
5
706
8
0-0
6
CONTINUOUS
62
  7
10
967.157
20
284.555
30
0.0
11
964.476
21
259.049
31
0.0
0
LINE
5
707
8
0-0
6
CONTINUOUS
62
  7
10
1366.216
20
381.081
30
0.0
11
1366.216
21
445.081
31
0.0
0
LINE
5
708
8
0-0
6
CONTINUOUS
62
  7
10
1309.459
20
381.081
30
0.0
11
1366.216
21
381.081
31
0.0
0
LINE
5
709
8
0-0
6
CONTINUOUS
62
  7
10
1309.459
20
445.081
30
0.0
11
1366.216
21
445.081
31
0.0
0
LINE
5
70a
8
0-0
6
CONTINUOUS
62
  7
10
1366.216
20
750.473
30
0.0
11
1366.216
21
895.473
31
0.0
0
LINE
5
70b
8
0-0
6
CONTINUOUS
62
  7
10
1309.459
20
750.473
30
0.0
11
1366.216
21
750.473
31
0.0
0
LINE
5
70c
8
0-0
6
CONTINUOUS
62
  7
10
1309.459
20
895.473
30
0.0
11
1366.216
21
895.473
31
0.0
0
LINE
5
70d
8
0-0
6
CONTINUOUS
62
  7
10
964.865
20
1249.830
30
0.0
11
1241.865
21
1249.830
31
0.0
0
LINE
5
70e
8
0-0
6
CONTINUOUS
62
  7
10
964.865
20
1197.629
30
0.0
11
964.865
21
1249.830
31
0.0
0
LINE
5
70f
8
0-0
6
CONTINUOUS
62
  7
10
1241.865
20
1197.629
30
0.0
11
1241.865
21
1249.830
31
0.0
0
LINE
5
710
8
0-0
6
CONTINUOUS
62
  7
10
1241.865
20
1249.830
30
0.0
11
1271.865
21
1249.830
31
0.0
0
LINE
5
711
8
0-0
6
CONTINUOUS
62
  7
10
1271.865
20
1197.629
30
0.0
11
1271.865
21
1249.830
31
0.0
0
LINE
5
712
8
0-0
6
CONTINUOUS
62
  7
10
949.186
20
198.230
30
0.0
11
1241.865
21
198.230
31
0.0
0
LINE
5
713
8
0-0
6
CONTINUOUS
62
  7
10
949.186
20
241.604
30
0.0
11
949.186
21
198.230
31
0.0
0
LINE
5
714
8
0-0
6
CONTINUOUS
62
  7
10
1241.865
20
241.604
30
0.0
11
1241.865
21
198.230
31
0.0
0
LINE
5
715
8
ADD_LINE
6
HIDDEN
62
  3
10
613.573
20
822.973
30
0.0
11
731.819
21
822.973
31
0.0
0
LINE
5
716
8
ADD_LINE
6
HIDDEN
62
  3
10
672.973
20
907.553
30
0.0
11
672.973
21
727.014
31
0.0
0
LINE
5
717
8
ADD_LINE
6
HIDDEN
62
  3
10
539.189
20
822.973
30
0.0
11
1564.865
21
822.973
31
0.0
0
CIRCLE
5
718
8
0-0
6
CONTINUOUS
62
  7
10
1091.865
20
822.973
30
0.0
40
3.000
0
CIRCLE
5
719
8
0-0
6
CONTINUOUS
62
  7
10
1116.865
20
822.973
30
0.0
40
3.000
0
CIRCLE
5
71a
8
0-0
6
CONTINUOUS
62
  7
10
672.973
20
822.973
30
0.0
40
75.000
0
ARC
5
71b
8
0-0
6
CONTINUOUS
62
  7
10
1556.757
20
822.973
30
0.0
40
54.500
50
104.341904
51
255.658096
0
ARC
5
71c
8
0-0
6
CONTINUOUS
62
  7
10
1556.757
20
822.973
30
0.0
40
72.500
50
96.732971
51
263.267029
0
ARC
5
71d
8
0-0
6
CONTINUOUS
62
  7
10
997.261
20
507.567
30
0.0
40
62.532
50
238.797165
51
267.804352
0
ARC
5
71e
8
0-0
6
CONTINUOUS
62
  7
10
997.261
20
1229.188
30
0.0
40
62.532
50
238.797165
51
267.804352
0
CIRCLE
5
71f
8
0-0
6
CONTINUOUS
62
  7
10
672.973
20
822.973
30
0.0
40
59.400
0
CIRCLE
5
720
8
0-0
6
CONTINUOUS
62
  7
10
672.973
20
822.973
30
0.0
40
44.194
0
ARC
5
721
8
0-0
6
CONTINUOUS
62
  7
10
681.897
20
833.557
30
0.0
40
14.015
50
89.708176
51
225.900665
0
ARC
5
722
8
0-0
6
CONTINUOUS
62
  7
10
681.833
20
820.922
30
0.0
40
26.651
50
5.536682
51
89.708099
0
ARC
5
723
8
0-0
6
CONTINUOUS
62
  7
10
671.802
20
819.949
30
0.0
40
36.729
50
271.434967
51
5.536697
0
ARC
5
724
8
0-0
6
CONTINUOUS
62
  7
10
683.669
20
827.384
30
0.0
40
12.164
50
96.586990
51
198.658157
0
ARC
5
725
8
0-0
6
CONTINUOUS
62
  7
10
684.676
20
818.664
30
0.0
40
20.942
50
33.625534
51
96.586975
0
ARC
5
726
8
0-0
6
CONTINUOUS
62
  7
10
681.950
20
816.852
30
0.0
40
24.216
50
357.056061
51
33.625488
0
ARC
5
727
8
0-0
6
CONTINUOUS
62
  7
10
672.043
20
817.361
30
0.0
40
34.136
50
271.140259
51
357.056091
0
ARC
5
728
8
0-0
6
CONTINUOUS
62
  7
10
677.678
20
809.952
30
0.0
40
14.015
50
329.708191
51
465.900665
0
ARC
5
729
8
0-0
6
CONTINUOUS
62
  7
10
666.767
20
816.326
30
0.0
40
26.651
50
245.536682
51
329.708099
0
ARC
5
72a
8
0-0
6
CONTINUOUS
62
  7
10
670.940
20
825.499
30
0.0
40
36.729
50
511.434967
51
245.536697
0
ARC
5
72b
8
0-0
6
CONTINUOUS
62
  7
10
671.446
20
811.505
30
0.0
40
12.164
50
336.586975
51
438.658142
0
ARC
5
72c
8
0-0
6
CONTINUOUS
62
  7
10
663.390
20
814.993
30
0.0
40
20.942
50
273.625549
51
336.586975
0
ARC
5
72d
8
0-0
6
CONTINUOUS
62
  7
10
663.183
20
818.260
30
0.0
40
24.216
50
597.056030
51
273.625488
0
ARC
5
72e
8
0-0
6
CONTINUOUS
62
  7
10
668.578
20
826.585
30
0.0
40
34.136
50
511.140259
51
597.056091
0
ARC
5
72f
8
0-0
6
CONTINUOUS
62
  7
10
659.345
20
825.409
30
0.0
40
14.015
50
209.708176
51
345.900665
0
ARC
5
730
8
0-0
6
CONTINUOUS
62
  7
10
670.320
20
831.671
30
0.0
40
26.651
50
125.536682
51
209.708099
0
ARC
5
731
8
0-0
6
CONTINUOUS
62
  7
10
676.177
20
823.471
30
0.0
40
36.729
50
391.434967
51
125.536697
0
ARC
5
732
8
0-0
6
CONTINUOUS
62
  7
10
663.805
20
830.030
30
0.0
40
12.164
50
216.586990
51
318.658142
0
ARC
5
733
8
0-0
6
CONTINUOUS
62
  7
10
670.854
20
835.262
30
0.0
40
20.942
50
153.625534
51
216.586975
0
ARC
5
734
8
0-0
6
CONTINUOUS
62
  7
10
673.786
20
833.808
30
0.0
40
24.216
50
477.056061
51
153.625488
0
ARC
5
735
8
0-0
6
CONTINUOUS
62
  7
10
678.298
20
824.973
30
0.0
40
34.136
50
391.140259
51
477.056091
0
CIRCLE
5
736
8
0-0
6
CONTINUOUS
62
  7
10
720.968
20
841.810
30
0.0
40
4.500
0
CIRCLE
5
737
8
0-0
6
CONTINUOUS
62
  7
10
672.973
20
874.532
30
0.0
40
4.500
0
CIRCLE
5
738
8
0-0
6
CONTINUOUS
62
  7
10
688.170
20
872.242
30
0.0
40
4.500
0
CIRCLE
5
739
8
0-0
6
CONTINUOUS
62
  7
10
702.017
20
865.573
30
0.0
40
4.500
0
CIRCLE
5
73a
8
0-0
6
CONTINUOUS
62
  7
10
713.284
20
855.120
30
0.0
40
4.500
0
CIRCLE
5
73b
8
0-0
6
CONTINUOUS
62
  7
10
724.388
20
826.826
30
0.0
40
4.500
0
CIRCLE
5
73c
8
0-0
6
CONTINUOUS
62
  7
10
723.240
20
811.500
30
0.0
40
4.500
0
CIRCLE
5
73d
8
0-0
6
CONTINUOUS
62
  7
10
717.625
20
797.193
30
0.0
40
4.500
0
CIRCLE
5
73e
8
0-0
6
CONTINUOUS
62
  7
10
708.042
20
785.177
30
0.0
40
4.500
0
CIRCLE
5
73f
8
0-0
6
CONTINUOUS
62
  7
10
695.344
20
776.520
30
0.0
40
4.500
0
CIRCLE
5
740
8
0-0
6
CONTINUOUS
62
  7
10
680.658
20
771.990
30
0.0
40
4.500
0
CIRCLE
5
741
8
0-0
6
CONTINUOUS
62
  7
10
665.289
20
771.990
30
0.0
40
4.500
0
CIRCLE
5
742
8
0-0
6
CONTINUOUS
62
  7
10
650.603
20
776.520
30
0.0
40
4.500
0
CIRCLE
5
743
8
0-0
6
CONTINUOUS
62
  7
10
637.904
20
785.177
30
0.0
40
4.500
0
CIRCLE
5
744
8
0-0
6
CONTINUOUS
62
  7
10
628.322
20
797.193
30
0.0
40
4.500
0
CIRCLE
5
745
8
0-0
6
CONTINUOUS
62
  7
10
622.707
20
811.500
30
0.0
40
4.500
0
CIRCLE
5
746
8
0-0
6
CONTINUOUS
62
  7
10
621.558
20
826.826
30
0.0
40
4.500
0
CIRCLE
5
747
8
0-0
6
CONTINUOUS
62
  7
10
624.978
20
841.810
30
0.0
40
4.500
0
CIRCLE
5
748
8
0-0
6
CONTINUOUS
62
  7
10
632.662
20
855.120
30
0.0
40
4.500
0
CIRCLE
5
749
8
0-0
6
CONTINUOUS
62
  7
10
643.929
20
865.573
30
0.0
40
4.500
0
CIRCLE
5
74a
8
0-0
6
CONTINUOUS
62
  7
10
657.776
20
872.242
30
0.0
40
4.500
0
CIRCLE
5
74b
8
ADD_LINE
6
HIDDEN
62
  3
10
964.865
20
822.973
30
0.0
40
3.000
0
TEXT
5
74c
100
AcDbEntity
8
0-0
62
7
100
AcDbText
10
831.923
20
813.598
30
0.0
40
9.750
41
0.800
50
90.000
1
150
100
AcDbText
0
TEXT
5
74d
100
AcDbEntity
8
0-0
62
7
100
AcDbText
10
663.598
20
638.247
30
0.0
40
9.750
41
0.800
50
0.000
1
150
100
AcDbText
0
TEXT
5
74e
100
AcDbEntity
8
0-0
62
7
100
AcDbText
10
1093.990
20
638.247
30
0.0
40
9.750
41
0.800
50
0.000
1
277
100
AcDbText
0
TEXT
5
74f
100
AcDbEntity
8
0-0
62
7
100
AcDbText
10
1250.615
20
638.247
30
0.0
40
9.750
41
0.800
50
0.000
1
30
100
AcDbText
0
TEXT
5
750
100
AcDbEntity
8
0-0
62
7
100
AcDbText
10
1510.007
20
638.247
30
0.0
40
9.750
41
0.800
50
0.000
1
64
100
AcDbText
0
TEXT
5
751
100
AcDbEntity
8
0-0
62
7
100
AcDbText
10
948.577
20
263.234
30
0.0
40
9.750
41
0.800
50
354.000
1
20
100
AcDbText
0
TEXT
5
752
100
AcDbEntity
8
0-0
62
7
100
AcDbText
10
1363.716
20
406.831
30
0.0
40
9.750
41
0.800
50
90.000
1
64
100
AcDbText
0
TEXT
5
753
100
AcDbEntity
8
0-0
62
7
100
AcDbText
10
1363.716
20
813.598
30
0.0
40
9.750
41
0.800
50
90.000
1
145
100
AcDbText
0
TEXT
5
754
100
AcDbEntity
8
0-0
62
7
100
AcDbText
10
1093.990
20
1252.330
30
0.0
40
9.750
41
0.800
50
0.000
1
277
100
AcDbText
0
TEXT
5
755
100
AcDbEntity
8
0-0
62
7
100
AcDbText
10
1250.615
20
1252.330
30
0.0
40
9.750
41
0.800
50
0.000
1
30
100
AcDbText
0
TEXT
5
756
100
AcDbEntity
8
0-0
62
7
100
AcDbText
10
1086.150
20
200.730
30
0.0
40
9.750
41
0.800
50
0.000
1
293
100
AcDbText
0
POINT
5
757
8
0-0
62
  7
10
834.423
20
897.973
30
0.0
0
POINT
5
758
8
0-0
62
  7
10
834.423
20
747.973
30
0.0
0
POINT
5
759
8
0-0
62
  7
10
597.973
20
635.747
30
0.0
0
POINT
5
75a
8
0-0
62
  7
10
747.973
20
635.747
30
0.0
0
POINT
5
75b
8
0-0
62
  7
10
964.865
20
635.747
30
0.0
0
POINT
5
75c
8
0-0
62
  7
10
1241.865
20
635.747
30
0.0
0
POINT
5
75d
8
0-0
62
  7
10
1271.865
20
635.747
30
0.0
0
POINT
5
75e
8
0-0
62
  7
10
1484.257
20
635.747
30
0.0
0
POINT
5
75f
8
0-0
62
  7
10
1548.257
20
635.747
30
0.0
0
POINT
5
760
8
0-0
62
  7
10
944.586
20
261.140
30
0.0
0
POINT
5
761
8
0-0
62
  7
10
964.476
20
259.049
30
0.0
0
POINT
5
762
8
0-0
62
  7
10
1366.216
20
381.081
30
0.0
0
POINT
5
763
8
0-0
62
  7
10
1366.216
20
445.081
30
0.0
0
POINT
5
764
8
0-0
62
  7
10
1366.216
20
750.473
30
0.0
0
POINT
5
765
8
0-0
62
  7
10
1366.216
20
895.473
30
0.0
0
POINT
5
766
8
0-0
62
  7
10
964.865
20
1249.830
30
0.0
0
POINT
5
767
8
0-0
62
  7
10
1241.865
20
1249.830
30
0.0
0
POINT
5
768
8
0-0
62
  7
10
1271.865
20
1249.830
30
0.0
0
POINT
5
769
8
0-0
62
  7
10
949.186
20
198.230
30
0.0
0
POINT
5
76a
8
0-0
62
  7
10
1241.865
20
198.230
30
0.0
0
ENDSEC
0
EOF
