0
SECTION
2
HEADER
  9
$EXTMIN
10
0
20
0
30
0
  9
$EXTMAX
10
1586.069
20
1247.095
30
0
  9
$LTSCALE
40
5.000
  9
$DIMSCALE
40
5.000
  9
$PDMODE
70
0
  9
$PDSIZE
40
40
0
ENDSEC
0
SECTION
2
TABLES
0
TABLE
2
LTYPE
70
9
0
LTYPE
5
1f4
2
CONTINUOUS
70
0
3
実線
72
65
73
0
40
0.0
0
LTYPE
5
1f5
2
DOT
70
0
3
--  --  --  --  --  --  --  --     
72
65
73
2
40
5.000
49
1.000
49
-4.000
0
LTYPE
5
1f6
2
DASHED
70
0
3
----    ----    ----    ----    
72
65
73
2
40
5.000
49
2.000
49
-3.000
0
LTYPE
5
1f7
2
DASHED2
70
0
3
------  ------  ------  ------ 
72
65
73
2
40
10.000
49
4.000
49
-6.000
0
LTYPE
5
1f8
2
CENTER
70
0
3
----- - ----- - ----- - ----- - 
72
65
73
4
40
9.000
49
6.000
49
-1.000
49
1.000
49
-1.000
0
LTYPE
5
1f9
2
CENTER2
70
0
3
----------  --  ----------  -- 
72
65
73
4
40
18.000
49
12.000
49
-2.000
49
2.000
49
-2.000
0
LTYPE
5
1fa
2
PHANTOM
70
0
3
--- - - --- - - --- - - --- - -
72
65
73
6
40
10.000
49
5.000
49
-1.000
49
1.000
49
-1.000
49
1.000
49
-1.000
0
LTYPE
5
1fb
2
PHANTOM2
70
0
3
--------  -  -  --------  -  -
72
65
73
6
40
16.000
49
6.000
49
-2.000
49
2.000
49
-2.000
49
2.000
49
-2.000
0
LTYPE
5
1fc
2
HIDDEN
70
0
3
-   -   -   -   -   -   -   -   
72
65
73
2
40
2.500
49
0.500
49
-2.000
0
ENDTAB
0
TABLE
2
STYLE
70
1
0
STYLE
5
1fd
100
AcDbSymbolTableRecord
100
AcDbTextStyleTableRecord
2
STANDARD
70
0
40
0.0
41
1.0
50
0.0
71
0
42
0.0
3
txt.shx
4
extfont.shx
0
STYLE
5
1fe
100
AcDbSymbolTableRecord
100
AcDbTextStyleTableRecord
2
TATEGAKI
70
4
40
0.0
41
1.0
50
0.0
71
0
42
0.0
3
txt.shx
4
extfont.shx
0
STYLE
5
1ff
100
AcDbSymbolTableRecord
100
AcDbTextStyleTableRecord
2
MT
70
0
40
0.0
41
1.0
50
0.0
71
0
42
0.0
3
MS Mincho
4

0
STYLE
5
200
100
AcDbSymbolTableRecord
100
AcDbTextStyleTableRecord
2
TMT
70
4
40
0.0
41
1.0
50
0.0
71
0
42
0.0
3
@MS Mincho
4

0
ENDTAB
0
TABLE
2
LAYER
5
999
100
AcDbSymbolTable
70
10
0
LAYER
5
99a
100
AcDbSymbolTableRecord
100
AcDbLayerTableRecord
2
0
70
64
62
  7
  6
CONTINUOUS
0
LAYER
5
99b
100
AcDbSymbolTableRecord
100
AcDbLayerTableRecord
2
0-0
70
64
62
  7
  6
CONTINUOUS
0
LAYER
5
99c
100
AcDbSymbolTableRecord
100
AcDbLayerTableRecord
2
ADD_LINE
70
64
62
  -7
  6
CONTINUOUS
0
ENDTAB
0
ENDSEC
0
SECTION
2
ENTITIES
0
LINE
5
99d
8
0-0
6
CONTINUOUS
62
  7
10
1414.258
20
1110.811
30
0.0
11
1394.258
21
1110.811
31
0.0
0
LINE
5
99e
8
0-0
6
CONTINUOUS
62
  7
10
1394.258
20
1110.811
30
0.0
11
1394.258
21
1106.003
31
0.0
0
LINE
5
99f
8
0-0
6
CONTINUOUS
62
  7
10
1394.258
20
1110.811
30
0.0
11
1378.258
21
1110.811
31
0.0
0
LINE
5
9a0
8
0-0
6
CONTINUOUS
62
  7
10
1378.258
20
1105.811
30
0.0
11
1378.258
21
1110.811
31
0.0
0
LINE
5
9a1
8
0-0
6
CONTINUOUS
62
  7
10
875.892
20
805.811
30
0.0
11
1140.892
21
805.811
31
0.0
0
LINE
5
9a2
8
0-0
6
CONTINUOUS
62
  7
10
875.892
20
1105.811
30
0.0
11
875.892
21
805.811
31
0.0
0
LINE
5
9a3
8
0-0
6
CONTINUOUS
62
  7
10
875.892
20
1105.811
30
0.0
11
895.892
21
1105.811
31
0.0
0
LINE
5
9a4
8
0-0
6
CONTINUOUS
62
  7
10
895.892
20
1110.811
30
0.0
11
895.892
21
1105.811
31
0.0
0
LINE
5
9a5
8
0-0
6
CONTINUOUS
62
  7
10
895.892
20
1105.811
30
0.0
11
895.892
21
1102.811
31
0.0
0
LINE
5
9a6
8
0-0
6
CONTINUOUS
62
  7
10
1140.892
20
835.811
30
0.0
11
1120.892
21
805.811
31
0.0
0
LINE
5
9a7
8
0-0
6
CONTINUOUS
62
  7
10
1370.258
20
1105.811
30
0.0
11
1400.258
21
1105.811
31
0.0
0
LINE
5
9a8
8
0-0
6
CONTINUOUS
62
  7
10
1400.258
20
1105.811
30
0.0
11
1435.258
21
1105.811
31
0.0
0
LINE
5
9a9
8
0-0
6
CONTINUOUS
62
  7
10
1132.892
20
464.676
30
0.0
11
1140.892
21
464.676
31
0.0
0
LINE
5
9aa
8
0-0
6
CONTINUOUS
62
  7
10
1132.892
20
464.676
30
0.0
11
1132.892
21
461.653
31
0.0
0
LINE
5
9ab
8
0-0
6
CONTINUOUS
62
  7
10
875.892
20
464.676
30
0.0
11
875.892
21
379.676
31
0.0
0
LINE
5
9ac
8
0-0
6
CONTINUOUS
62
  7
10
875.892
20
379.676
30
0.0
11
891.892
21
379.676
31
0.0
0
LINE
5
9ad
8
0-0
6
CONTINUOUS
62
  7
10
1140.892
20
464.676
30
0.0
11
1140.892
21
420.676
31
0.0
0
LINE
5
9ae
8
ADD_LINE
6
HIDDEN
62
  7
10
1001.862
20
395.676
30
0.0
11
1029.097
21
395.676
31
0.0
0
LINE
5
9af
8
ADD_LINE
6
HIDDEN
62
  7
10
1029.097
20
395.676
30
0.0
11
1030.350
21
395.676
31
0.0
0
LINE
5
9b0
8
0-0
6
CONTINUOUS
62
  7
10
1370.258
20
1105.811
30
0.0
11
1370.258
21
805.811
31
0.0
0
LINE
5
9b1
8
0-0
6
CONTINUOUS
62
  7
10
1400.258
20
1105.811
30
0.0
11
1400.258
21
802.658
31
0.0
0
LINE
5
9b2
8
0-0
6
CONTINUOUS
62
  7
10
1414.258
20
1110.811
30
0.0
11
1414.258
21
815.263
31
0.0
0
LINE
5
9b3
8
0-0
6
CONTINUOUS
62
  7
10
1370.258
20
805.811
30
0.0
11
1455.258
21
796.877
31
0.0
0
LINE
5
9b4
8
0-0
6
CONTINUOUS
62
  7
10
1455.258
20
810.954
30
0.0
11
1455.258
21
796.877
31
0.0
0
LINE
5
9b5
8
0-0
6
CONTINUOUS
62
  7
10
1414.258
20
815.263
30
0.0
11
1455.258
21
810.954
31
0.0
0
LINE
5
9b6
8
0-0
6
CONTINUOUS
62
  7
10
1435.258
20
1105.811
30
0.0
11
1454.913
21
810.990
31
0.0
0
LINE
5
9b7
8
0-0
6
CONTINUOUS
62
  7
10
662.527
20
1110.811
30
0.0
11
662.527
21
805.811
31
0.0
0
LINE
5
9b8
8
0-0
6
CONTINUOUS
62
  7
10
662.527
20
805.811
30
0.0
11
577.527
21
796.877
31
0.0
0
LINE
5
9b9
8
0-0
6
CONTINUOUS
62
  7
10
577.527
20
810.954
30
0.0
11
577.527
21
796.877
31
0.0
0
LINE
5
9ba
8
0-0
6
CONTINUOUS
62
  7
10
577.527
20
810.954
30
0.0
11
621.025
21
815.526
31
0.0
0
LINE
5
9bb
8
0-0
6
CONTINUOUS
62
  7
10
597.527
20
1105.811
30
0.0
11
577.527
21
850.877
31
0.0
0
LINE
5
9bc
8
0-0
6
CONTINUOUS
62
  7
10
662.527
20
1105.811
30
0.0
11
597.527
21
1105.811
31
0.0
0
LINE
5
9bd
8
0-0
6
CONTINUOUS
62
  7
10
662.527
20
1110.811
30
0.0
11
648.527
21
1110.811
31
0.0
0
LINE
5
9be
8
0-0
6
CONTINUOUS
62
  7
10
648.527
20
1110.811
30
0.0
11
648.527
21
1105.811
31
0.0
0
LINE
5
9bf
8
0-0
6
CONTINUOUS
62
  7
10
891.892
20
414.843
30
0.0
11
891.892
21
379.676
31
0.0
0
LINE
5
9c0
8
ADD_LINE
6
HIDDEN
62
  3
10
891.892
20
414.843
30
0.0
11
891.892
21
435.032
31
0.0
0
LINE
5
9c1
8
0-0
6
CONTINUOUS
62
  7
10
577.527
20
632.432
30
0.0
11
662.527
21
632.432
31
0.0
0
LINE
5
9c2
8
0-0
6
CONTINUOUS
62
  7
10
577.527
20
717.568
30
0.0
11
577.527
21
632.432
31
0.0
0
LINE
5
9c3
8
0-0
6
CONTINUOUS
62
  7
10
662.527
20
717.568
30
0.0
11
662.527
21
632.432
31
0.0
0
LINE
5
9c4
8
0-0
6
CONTINUOUS
62
  7
10
875.892
20
632.432
30
0.0
11
1140.892
21
632.432
31
0.0
0
LINE
5
9c5
8
0-0
6
CONTINUOUS
62
  7
10
875.892
20
717.568
30
0.0
11
875.892
21
632.432
31
0.0
0
LINE
5
9c6
8
0-0
6
CONTINUOUS
62
  7
10
1140.892
20
717.568
30
0.0
11
1140.892
21
632.432
31
0.0
0
LINE
5
9c7
8
0-0
6
CONTINUOUS
62
  7
10
875.892
20
198.649
30
0.0
11
1140.892
21
198.649
31
0.0
0
LINE
5
9c8
8
0-0
6
CONTINUOUS
62
  7
10
875.892
20
320.270
30
0.0
11
875.892
21
198.649
31
0.0
0
LINE
5
9c9
8
0-0
6
CONTINUOUS
62
  7
10
1140.892
20
320.270
30
0.0
11
1140.892
21
198.649
31
0.0
0
LINE
5
9ca
8
0-0
6
CONTINUOUS
62
  7
10
875.892
20
239.189
30
0.0
11
891.892
21
239.189
31
0.0
0
LINE
5
9cb
8
0-0
6
CONTINUOUS
62
  7
10
875.892
20
320.270
30
0.0
11
875.892
21
239.189
31
0.0
0
LINE
5
9cc
8
0-0
6
CONTINUOUS
62
  7
10
891.892
20
320.270
30
0.0
11
891.892
21
239.189
31
0.0
0
LINE
5
9cd
8
0-0
6
CONTINUOUS
62
  7
10
1257.690
20
1110.811
30
0.0
11
1257.690
21
805.811
31
0.0
0
LINE
5
9ce
8
0-0
6
CONTINUOUS
62
  7
10
1176.609
20
1110.811
30
0.0
11
1257.690
21
1110.811
31
0.0
0
LINE
5
9cf
8
0-0
6
CONTINUOUS
62
  7
10
1176.609
20
805.811
30
0.0
11
1257.690
21
805.811
31
0.0
0
LINE
5
9d0
8
0-0
6
CONTINUOUS
62
  7
10
1257.690
20
464.676
30
0.0
11
1257.690
21
420.676
31
0.0
0
LINE
5
9d1
8
0-0
6
CONTINUOUS
62
  7
10
1176.609
20
464.676
30
0.0
11
1257.690
21
464.676
31
0.0
0
LINE
5
9d2
8
0-0
6
CONTINUOUS
62
  7
10
1176.609
20
420.676
30
0.0
11
1257.690
21
420.676
31
0.0
0
LINE
5
9d3
8
0-0
6
CONTINUOUS
62
  7
10
1586.069
20
1110.811
30
0.0
11
1586.069
21
805.811
31
0.0
0
LINE
5
9d4
8
0-0
6
CONTINUOUS
62
  7
10
1521.204
20
1110.811
30
0.0
11
1586.069
21
1110.811
31
0.0
0
LINE
5
9d5
8
0-0
6
CONTINUOUS
62
  7
10
1521.204
20
805.811
30
0.0
11
1586.069
21
805.811
31
0.0
0
LINE
5
9d6
8
0-0
6
CONTINUOUS
62
  7
10
754.987
20
805.811
30
0.0
11
754.987
21
1110.811
31
0.0
0
LINE
5
9d7
8
0-0
6
CONTINUOUS
62
  7
10
698.231
20
805.811
30
0.0
11
754.987
21
805.811
31
0.0
0
LINE
5
9d8
8
0-0
6
CONTINUOUS
62
  7
10
698.231
20
1110.811
30
0.0
11
754.987
21
1110.811
31
0.0
0
LINE
5
9d9
8
0-0
6
CONTINUOUS
62
  7
10
733.512
20
464.676
30
0.0
11
733.512
21
379.676
31
0.0
0
LINE
5
9da
8
0-0
6
CONTINUOUS
62
  7
10
844.177
20
464.676
30
0.0
11
733.512
21
464.676
31
0.0
0
LINE
5
9db
8
0-0
6
CONTINUOUS
62
  7
10
844.177
20
379.676
30
0.0
11
733.512
21
379.676
31
0.0
0
LINE
5
9dc
8
0-0
6
CONTINUOUS
62
  7
10
770.765
20
464.676
30
0.0
11
770.765
21
420.676
31
0.0
0
LINE
5
9dd
8
0-0
6
CONTINUOUS
62
  7
10
844.177
20
464.676
30
0.0
11
770.765
21
464.676
31
0.0
0
LINE
5
9de
8
0-0
6
CONTINUOUS
62
  7
10
844.177
20
420.676
30
0.0
11
770.765
21
420.676
31
0.0
0
LINE
5
9df
8
0-0
6
CONTINUOUS
62
  7
10
770.765
20
420.676
30
0.0
11
770.765
21
379.676
31
0.0
0
LINE
5
9e0
8
0-0
6
CONTINUOUS
62
  7
10
844.177
20
379.676
30
0.0
11
770.765
21
379.676
31
0.0
0
LINE
5
9e1
8
0-0
6
CONTINUOUS
62
  7
10
895.892
20
1110.811
30
0.0
11
1143.892
21
1110.811
31
0.0
0
LINE
5
9e2
8
0-0
6
CONTINUOUS
62
  7
10
1143.892
20
1110.811
30
0.0
11
1140.892
21
805.811
31
0.0
0
LINE
5
9e3
8
0-0
6
CONTINUOUS
62
  7
10
895.892
20
1102.811
30
0.0
11
1135.813
21
1102.811
31
0.0
0
LINE
5
9e4
8
0-0
6
CONTINUOUS
62
  7
10
1140.892
20
835.811
30
0.0
11
1133.187
21
835.811
31
0.0
0
LINE
5
9e5
8
0-0
6
CONTINUOUS
62
  7
10
1135.813
20
1102.811
30
0.0
11
1133.187
21
835.811
31
0.0
0
LINE
5
9e6
8
0-0
6
CONTINUOUS
62
  7
10
597.527
20
1244.595
30
0.0
11
662.527
21
1244.595
31
0.0
0
LINE
5
9e7
8
0-0
6
CONTINUOUS
62
  7
10
597.527
20
1155.406
30
0.0
11
597.527
21
1244.595
31
0.0
0
LINE
5
9e8
8
0-0
6
CONTINUOUS
62
  7
10
662.527
20
1155.406
30
0.0
11
662.527
21
1244.595
31
0.0
0
LINE
5
9e9
8
0-0
6
CONTINUOUS
62
  7
10
875.892
20
1244.595
30
0.0
11
1143.892
21
1244.595
31
0.0
0
LINE
5
9ea
8
0-0
6
CONTINUOUS
62
  7
10
875.892
20
1155.406
30
0.0
11
875.892
21
1244.595
31
0.0
0
LINE
5
9eb
8
0-0
6
CONTINUOUS
62
  7
10
1143.892
20
1155.406
30
0.0
11
1143.892
21
1244.595
31
0.0
0
LINE
5
9ec
8
ADD_LINE
6
HIDDEN
62
  3
10
840.024
20
425.676
30
0.0
11
926.798
21
425.676
31
0.0
0
LINE
5
9ed
8
ADD_LINE
6
HIDDEN
62
  3
10
1100.892
20
464.676
30
0.0
11
1100.892
21
379.676
31
0.0
0
LINE
5
9ee
8
0-0
6
CONTINUOUS
62
  7
10
875.892
20
544.081
30
0.0
11
1100.892
21
544.081
31
0.0
0
LINE
5
9ef
8
0-0
6
CONTINUOUS
62
  7
10
875.892
20
489.296
30
0.0
11
875.892
21
544.081
31
0.0
0
LINE
5
9f0
8
0-0
6
CONTINUOUS
62
  7
10
1100.892
20
489.296
30
0.0
11
1100.892
21
544.081
31
0.0
0
CIRCLE
5
9f1
8
0-0
6
CONTINUOUS
62
  7
10
958.892
20
1090.811
30
0.0
40
3.000
0
CIRCLE
5
9f2
8
0-0
6
CONTINUOUS
62
  7
10
1058.892
20
1090.811
30
0.0
40
3.000
0
ARC
5
9f3
8
0-0
6
CONTINUOUS
62
  7
10
1008.392
20
803.301
30
0.0
40
363.625
50
248.630188
51
290.022278
0
CIRCLE
5
9f4
8
ADD_LINE
6
HIDDEN
62
  3
10
891.892
20
425.676
30
0.0
40
3.000
0
ARC
5
9f5
8
0-0
6
CONTINUOUS
62
  7
10
1008.392
20
759.301
30
0.0
40
363.626
50
248.630203
51
291.369812
0
ARC
5
9f6
8
0-0
6
CONTINUOUS
62
  7
10
577.527
20
825.877
30
0.0
40
25.000
50
0.000000
51
90.000000
0
ARC
5
9f7
8
0-0
6
CONTINUOUS
62
  7
10
604.040
20
806.877
30
0.0
40
19.060
50
343.890442
51
94.553146
0
TEXT
5
9f8
100
AcDbEntity
8
0-0
62
7
100
AcDbText
10
613.777
20
634.932
30
0.0
40
9.750
41
0.800
50
0.000
1
85
100
AcDbText
0
TEXT
5
9f9
100
AcDbEntity
8
0-0
62
7
100
AcDbText
10
999.017
20
634.932
30
0.0
40
9.750
41
0.800
50
0.000
1
265
100
AcDbText
0
TEXT
5
9fa
100
AcDbEntity
8
0-0
62
7
100
AcDbText
10
999.017
20
201.149
30
0.0
40
9.750
41
0.800
50
0.000
1
265
100
AcDbText
0
TEXT
5
9fb
100
AcDbEntity
8
0-0
62
7
100
AcDbText
10
877.642
20
241.689
30
0.0
40
9.750
41
0.800
50
0.000
1
16
100
AcDbText
0
TEXT
5
9fc
100
AcDbEntity
8
0-0
62
7
100
AcDbText
10
1255.190
20
948.936
30
0.0
40
9.750
41
0.800
50
90.000
1
305
100
AcDbText
0
TEXT
5
9fd
100
AcDbEntity
8
0-0
62
7
100
AcDbText
10
1255.190
20
436.426
30
0.0
40
9.750
41
0.800
50
90.000
1
44
100
AcDbText
0
TEXT
5
9fe
100
AcDbEntity
8
0-0
62
7
100
AcDbText
10
1583.569
20
948.936
30
0.0
40
9.750
41
0.800
50
90.000
1
305
100
AcDbText
0
TEXT
5
9ff
100
AcDbEntity
8
0-0
62
7
100
AcDbText
10
752.487
20
948.936
30
0.0
40
9.750
41
0.800
50
90.000
1
305
100
AcDbText
0
TEXT
5
a00
100
AcDbEntity
8
0-0
62
7
100
AcDbText
10
731.012
20
415.926
30
0.0
40
9.750
41
0.800
50
90.000
1
85
100
AcDbText
0
TEXT
5
a01
100
AcDbEntity
8
0-0
62
7
100
AcDbText
10
768.265
20
436.426
30
0.0
40
9.750
41
0.800
50
90.000
1
44
100
AcDbText
0
TEXT
5
a02
100
AcDbEntity
8
0-0
62
7
100
AcDbText
10
768.265
20
393.926
30
0.0
40
9.750
41
0.800
50
90.000
1
41
100
AcDbText
0
TEXT
5
a03
100
AcDbEntity
8
0-0
62
7
100
AcDbText
10
623.777
20
1247.095
30
0.0
40
9.750
41
0.800
50
0.000
1
65
100
AcDbText
0
TEXT
5
a04
100
AcDbEntity
8
0-0
62
7
100
AcDbText
10
1000.517
20
1247.095
30
0.0
40
9.750
41
0.800
50
0.000
1
268
100
AcDbText
0
TEXT
5
a05
100
AcDbEntity
8
0-0
62
7
100
AcDbText
10
979.017
20
546.581
30
0.0
40
9.750
41
0.800
50
0.000
1
225
100
AcDbText
0
POINT
5
a06
8
0-0
62
  7
10
577.527
20
632.432
30
0.0
0
POINT
5
a07
8
0-0
62
  7
10
662.527
20
632.432
30
0.0
0
POINT
5
a08
8
0-0
62
  7
10
875.892
20
632.432
30
0.0
0
POINT
5
a09
8
0-0
62
  7
10
1140.892
20
632.432
30
0.0
0
POINT
5
a0a
8
0-0
62
  7
10
875.892
20
198.649
30
0.0
0
POINT
5
a0b
8
0-0
62
  7
10
1140.892
20
198.649
30
0.0
0
POINT
5
a0c
8
0-0
62
  7
10
875.892
20
239.189
30
0.0
0
POINT
5
a0d
8
0-0
62
  7
10
891.892
20
239.189
30
0.0
0
POINT
5
a0e
8
0-0
62
  7
10
1257.690
20
1110.811
30
0.0
0
POINT
5
a0f
8
0-0
62
  7
10
1257.690
20
805.811
30
0.0
0
POINT
5
a10
8
0-0
62
  7
10
1257.690
20
464.676
30
0.0
0
POINT
5
a11
8
0-0
62
  7
10
1257.690
20
420.676
30
0.0
0
POINT
5
a12
8
0-0
62
  7
10
1586.069
20
1110.811
30
0.0
0
POINT
5
a13
8
0-0
62
  7
10
1586.069
20
805.811
30
0.0
0
POINT
5
a14
8
0-0
62
  7
10
754.987
20
805.811
30
0.0
0
POINT
5
a15
8
0-0
62
  7
10
754.987
20
1110.811
30
0.0
0
POINT
5
a16
8
0-0
62
  7
10
733.512
20
464.676
30
0.0
0
POINT
5
a17
8
0-0
62
  7
10
733.512
20
379.676
30
0.0
0
POINT
5
a18
8
0-0
62
  7
10
770.765
20
464.676
30
0.0
0
POINT
5
a19
8
0-0
62
  7
10
770.765
20
420.676
30
0.0
0
POINT
5
a1a
8
0-0
62
  7
10
770.765
20
379.676
30
0.0
0
POINT
5
a1b
8
0-0
62
  7
10
597.527
20
1244.595
30
0.0
0
POINT
5
a1c
8
0-0
62
  7
10
662.527
20
1244.595
30
0.0
0
POINT
5
a1d
8
0-0
62
  7
10
875.892
20
1244.595
30
0.0
0
POINT
5
a1e
8
0-0
62
  7
10
1143.892
20
1244.595
30
0.0
0
POINT
5
a1f
8
0-0
62
  7
10
875.892
20
544.081
30
0.0
0
POINT
5
a20
8
0-0
62
  7
10
1100.892
20
544.081
30
0.0
0
ENDSEC
0
EOF
