0
SECTION
2
HEADER
  9
$EXTMIN
10
0
20
0
30
0
  9
$EXTMAX
10
1538.500
20
1354.054
30
0
  9
$LTSCALE
40
5.000
  9
$DIMSCALE
40
5.000
  9
$PDMODE
70
0
  9
$PDSIZE
40
40
0
ENDSEC
0
SECTION
2
TABLES
0
TABLE
2
LTYPE
70
9
0
LTYPE
5
1f4
2
CONTINUOUS
70
0
3
実線
72
65
73
0
40
0.0
0
LTYPE
5
1f5
2
DOT
70
0
3
--  --  --  --  --  --  --  --     
72
65
73
2
40
5.000
49
1.000
49
-4.000
0
LTYPE
5
1f6
2
DASHED
70
0
3
----    ----    ----    ----    
72
65
73
2
40
5.000
49
2.000
49
-3.000
0
LTYPE
5
1f7
2
DASHED2
70
0
3
------  ------  ------  ------ 
72
65
73
2
40
10.000
49
4.000
49
-6.000
0
LTYPE
5
1f8
2
CENTER
70
0
3
----- - ----- - ----- - ----- - 
72
65
73
4
40
9.000
49
6.000
49
-1.000
49
1.000
49
-1.000
0
LTYPE
5
1f9
2
CENTER2
70
0
3
----------  --  ----------  -- 
72
65
73
4
40
18.000
49
12.000
49
-2.000
49
2.000
49
-2.000
0
LTYPE
5
1fa
2
PHANTOM
70
0
3
--- - - --- - - --- - - --- - -
72
65
73
6
40
10.000
49
5.000
49
-1.000
49
1.000
49
-1.000
49
1.000
49
-1.000
0
LTYPE
5
1fb
2
PHANTOM2
70
0
3
--------  -  -  --------  -  -
72
65
73
6
40
16.000
49
6.000
49
-2.000
49
2.000
49
-2.000
49
2.000
49
-2.000
0
LTYPE
5
1fc
2
HIDDEN
70
0
3
-   -   -   -   -   -   -   -   
72
65
73
2
40
2.500
49
0.500
49
-2.000
0
ENDTAB
0
TABLE
2
STYLE
70
1
0
STYLE
5
1fd
100
AcDbSymbolTableRecord
100
AcDbTextStyleTableRecord
2
STANDARD
70
0
40
0.0
41
1.0
50
0.0
71
0
42
0.0
3
txt.shx
4
extfont.shx
0
STYLE
5
1fe
100
AcDbSymbolTableRecord
100
AcDbTextStyleTableRecord
2
TATEGAKI
70
4
40
0.0
41
1.0
50
0.0
71
0
42
0.0
3
txt.shx
4
extfont.shx
0
STYLE
5
1ff
100
AcDbSymbolTableRecord
100
AcDbTextStyleTableRecord
2
MT
70
0
40
0.0
41
1.0
50
0.0
71
0
42
0.0
3
MS Mincho
4

0
STYLE
5
200
100
AcDbSymbolTableRecord
100
AcDbTextStyleTableRecord
2
TMT
70
4
40
0.0
41
1.0
50
0.0
71
0
42
0.0
3
@MS Mincho
4

0
ENDTAB
0
TABLE
2
LAYER
5
1f364
100
AcDbSymbolTable
70
10
0
LAYER
5
1f365
100
AcDbSymbolTableRecord
100
AcDbLayerTableRecord
2
0
70
64
62
  7
  6
CONTINUOUS
0
LAYER
5
1f366
100
AcDbSymbolTableRecord
100
AcDbLayerTableRecord
2
0-0
70
64
62
  7
  6
CONTINUOUS
0
LAYER
5
1f367
100
AcDbSymbolTableRecord
100
AcDbLayerTableRecord
2
0-1
70
64
62
  7
  6
CONTINUOUS
0
LAYER
5
1f368
100
AcDbSymbolTableRecord
100
AcDbLayerTableRecord
2
0-2
70
64
62
  7
  6
CONTINUOUS
0
LAYER
5
1f369
100
AcDbSymbolTableRecord
100
AcDbLayerTableRecord
2
ADD_LINE
70
64
62
  -7
  6
CONTINUOUS
0
ENDTAB
0
ENDSEC
0
SECTION
2
ENTITIES
0
LINE
5
1f36a
8
0-0
6
CONTINUOUS
62
  7
10
701.757
20
778.378
30
0.0
11
911.757
21
778.378
31
0.0
0
LINE
5
1f36b
8
0-0
6
CONTINUOUS
62
  7
10
701.757
20
986.378
30
0.0
11
701.757
21
778.378
31
0.0
0
LINE
5
1f36c
8
0-0
6
CONTINUOUS
62
  7
10
701.757
20
986.378
30
0.0
11
911.757
21
986.378
31
0.0
0
LINE
5
1f36d
8
0-0
6
CONTINUOUS
62
  7
10
911.757
20
986.378
30
0.0
11
911.757
21
778.378
31
0.0
0
LINE
5
1f36e
8
0-0
6
CONTINUOUS
62
  7
10
721.757
20
1002.378
30
0.0
11
701.757
21
986.378
31
0.0
0
LINE
5
1f36f
8
0-0
6
CONTINUOUS
62
  7
10
721.757
20
1002.378
30
0.0
11
891.757
21
1002.378
31
0.0
0
LINE
5
1f370
8
0-0
6
CONTINUOUS
62
  7
10
891.757
20
1002.378
30
0.0
11
911.757
21
986.378
31
0.0
0
LINE
5
1f371
8
0-0
6
CONTINUOUS
62
  7
10
756.757
20
928.378
30
0.0
11
756.757
21
778.378
31
0.0
0
LINE
5
1f372
8
0-0
6
CONTINUOUS
62
  7
10
766.757
20
938.378
30
0.0
11
846.757
21
938.378
31
0.0
0
LINE
5
1f373
8
0-0
6
CONTINUOUS
62
  7
10
856.757
20
928.378
30
0.0
11
856.757
21
778.378
31
0.0
0
LINE
5
1f374
8
0-0
6
CONTINUOUS
62
  7
10
742.757
20
928.378
30
0.0
11
742.757
21
778.378
31
0.0
0
LINE
5
1f375
8
0-0
6
CONTINUOUS
62
  7
10
737.757
20
938.378
30
0.0
11
737.757
21
778.378
31
0.0
0
LINE
5
1f376
8
0-0
6
CONTINUOUS
62
  7
10
766.757
20
950.378
30
0.0
11
846.757
21
950.378
31
0.0
0
LINE
5
1f377
8
0-0
6
CONTINUOUS
62
  7
10
754.757
20
955.378
30
0.0
11
858.757
21
955.378
31
0.0
0
LINE
5
1f378
8
0-0
6
CONTINUOUS
62
  7
10
875.757
20
938.378
30
0.0
11
875.757
21
778.378
31
0.0
0
LINE
5
1f379
8
0-0
6
CONTINUOUS
62
  7
10
870.757
20
928.378
30
0.0
11
870.757
21
778.378
31
0.0
0
LINE
5
1f37a
8
0-0
6
CONTINUOUS
62
  7
10
737.257
20
1035.378
30
0.0
11
876.257
21
1035.378
31
0.0
0
LINE
5
1f37b
8
0-0
6
CONTINUOUS
62
  7
10
737.257
20
1035.378
30
0.0
11
737.257
21
1002.378
31
0.0
0
LINE
5
1f37c
8
0-0
6
CONTINUOUS
62
  7
10
876.257
20
1035.378
30
0.0
11
876.257
21
1002.378
31
0.0
0
LINE
5
1f37d
8
0-0
6
CONTINUOUS
62
  7
10
752.257
20
1096.378
30
0.0
11
752.257
21
1114.378
31
0.0
0
LINE
5
1f37e
8
0-0
6
CONTINUOUS
62
  7
10
861.257
20
1096.378
30
0.0
11
861.257
21
1114.378
31
0.0
0
LINE
5
1f37f
8
0-0
6
CONTINUOUS
62
  7
10
806.757
20
1332.378
30
0.0
11
738.257
21
1114.378
31
0.0
0
LINE
5
1f380
8
0-0
6
CONTINUOUS
62
  7
10
738.257
20
1114.378
30
0.0
11
875.257
21
1114.378
31
0.0
0
LINE
5
1f381
8
0-0
6
CONTINUOUS
62
  7
10
806.757
20
1332.378
30
0.0
11
875.257
21
1114.378
31
0.0
0
LINE
5
1f382
8
0-0
6
CONTINUOUS
62
  7
10
755.257
20
1062.378
30
0.0
11
858.257
21
1062.378
31
0.0
0
LINE
5
1f383
8
0-0
6
CONTINUOUS
62
  7
10
752.257
20
1096.378
30
0.0
11
861.257
21
1096.378
31
0.0
0
LINE
5
1f384
8
0-0
6
CONTINUOUS
62
  7
10
701.757
20
595.946
30
0.0
11
911.757
21
595.946
31
0.0
0
LINE
5
1f385
8
0-0
6
CONTINUOUS
62
  7
10
701.757
20
595.946
30
0.0
11
701.757
21
385.946
31
0.0
0
LINE
5
1f386
8
0-0
6
CONTINUOUS
62
  7
10
701.757
20
385.946
30
0.0
11
911.757
21
385.946
31
0.0
0
LINE
5
1f387
8
0-0
6
CONTINUOUS
62
  7
10
911.757
20
595.946
30
0.0
11
911.757
21
385.946
31
0.0
0
LINE
5
1f388
8
0-0
6
CONTINUOUS
62
  7
10
738.257
20
559.446
30
0.0
11
875.257
21
559.446
31
0.0
0
LINE
5
1f389
8
0-0
6
CONTINUOUS
62
  7
10
875.257
20
559.446
30
0.0
11
875.257
21
422.446
31
0.0
0
LINE
5
1f38a
8
0-0
6
CONTINUOUS
62
  7
10
738.257
20
422.446
30
0.0
11
875.257
21
422.446
31
0.0
0
LINE
5
1f38b
8
0-0
6
CONTINUOUS
62
  7
10
738.257
20
559.446
30
0.0
11
738.257
21
422.446
31
0.0
0
LINE
5
1f38c
8
0-0
6
CONTINUOUS
62
  7
10
721.757
20
575.946
30
0.0
11
891.757
21
575.946
31
0.0
0
LINE
5
1f38d
8
0-0
6
CONTINUOUS
62
  7
10
891.757
20
575.946
30
0.0
11
891.757
21
405.946
31
0.0
0
LINE
5
1f38e
8
0-0
6
CONTINUOUS
62
  7
10
721.757
20
405.946
30
0.0
11
891.757
21
405.946
31
0.0
0
LINE
5
1f38f
8
0-0
6
CONTINUOUS
62
  7
10
721.757
20
575.946
30
0.0
11
721.757
21
405.946
31
0.0
0
LINE
5
1f390
8
0-0
6
CONTINUOUS
62
  7
10
1273.378
20
986.378
30
0.0
11
1273.378
21
778.378
31
0.0
0
LINE
5
1f391
8
0-0
6
CONTINUOUS
62
  7
10
1273.378
20
986.378
30
0.0
11
1483.378
21
986.378
31
0.0
0
LINE
5
1f392
8
0-0
6
CONTINUOUS
62
  7
10
1483.378
20
986.378
30
0.0
11
1483.378
21
778.378
31
0.0
0
LINE
5
1f393
8
0-0
6
CONTINUOUS
62
  7
10
1293.378
20
1002.378
30
0.0
11
1273.378
21
986.378
31
0.0
0
LINE
5
1f394
8
0-0
6
CONTINUOUS
62
  7
10
1293.378
20
1002.378
30
0.0
11
1463.379
21
1002.378
31
0.0
0
LINE
5
1f395
8
0-0
6
CONTINUOUS
62
  7
10
1463.379
20
1002.378
30
0.0
11
1483.378
21
986.378
31
0.0
0
LINE
5
1f396
8
0-0
6
CONTINUOUS
62
  7
10
1308.879
20
1035.378
30
0.0
11
1447.878
21
1035.378
31
0.0
0
LINE
5
1f397
8
0-0
6
CONTINUOUS
62
  7
10
1308.879
20
1035.378
30
0.0
11
1308.879
21
1002.378
31
0.0
0
LINE
5
1f398
8
0-0
6
CONTINUOUS
62
  7
10
1447.878
20
1035.378
30
0.0
11
1447.878
21
1002.378
31
0.0
0
LINE
5
1f399
8
0-0
6
CONTINUOUS
62
  7
10
1323.878
20
1096.378
30
0.0
11
1323.878
21
1114.378
31
0.0
0
LINE
5
1f39a
8
0-0
6
CONTINUOUS
62
  7
10
1432.878
20
1096.378
30
0.0
11
1432.878
21
1114.378
31
0.0
0
LINE
5
1f39b
8
0-0
6
CONTINUOUS
62
  7
10
1378.378
20
1332.378
30
0.0
11
1309.878
21
1114.378
31
0.0
0
LINE
5
1f39c
8
0-0
6
CONTINUOUS
62
  7
10
1309.878
20
1114.378
30
0.0
11
1446.878
21
1114.378
31
0.0
0
LINE
5
1f39d
8
0-0
6
CONTINUOUS
62
  7
10
1378.378
20
1332.378
30
0.0
11
1446.878
21
1114.378
31
0.0
0
LINE
5
1f39e
8
0-0
6
CONTINUOUS
62
  7
10
1326.878
20
1062.378
30
0.0
11
1429.878
21
1062.378
31
0.0
0
LINE
5
1f39f
8
0-0
6
CONTINUOUS
62
  7
10
1323.878
20
1096.378
30
0.0
11
1432.878
21
1096.378
31
0.0
0
LINE
5
1f3a0
8
0-0
6
CONTINUOUS
62
  7
10
1273.378
20
778.378
30
0.0
11
1483.378
21
778.378
31
0.0
0
LINE
5
1f3a1
8
0-0
6
CONTINUOUS
62
  7
10
1273.378
20
778.378
30
0.0
11
1483.378
21
778.378
31
0.0
0
LINE
5
1f3a2
8
ADD_LINE
6
HIDDEN
62
  3
10
806.757
20
1354.054
30
0.0
11
806.757
21
328.378
31
0.0
0
LINE
5
1f3a3
8
ADD_LINE
6
HIDDEN
62
  3
10
1378.378
20
1354.054
30
0.0
11
1378.378
21
709.459
31
0.0
0
LINE
5
1f3a4
8
0-2
6
CONTINUOUS
62
  7
10
701.757
20
678.351
30
0.0
11
911.757
21
678.351
31
0.0
0
LINE
5
1f3a5
8
0-2
6
CONTINUOUS
62
  7
10
701.757
20
740.214
30
0.0
11
701.757
21
678.351
31
0.0
0
LINE
5
1f3a6
8
0-2
6
CONTINUOUS
62
  7
10
911.757
20
740.214
30
0.0
11
911.757
21
678.351
31
0.0
0
LINE
5
1f3a7
8
0-2
6
CONTINUOUS
62
  7
10
1273.378
20
678.351
30
0.0
11
1483.378
21
678.351
31
0.0
0
LINE
5
1f3a8
8
0-2
6
CONTINUOUS
62
  7
10
1273.378
20
740.214
30
0.0
11
1273.378
21
678.351
31
0.0
0
LINE
5
1f3a9
8
0-2
6
CONTINUOUS
62
  7
10
1483.378
20
740.214
30
0.0
11
1483.378
21
678.351
31
0.0
0
LINE
5
1f3aa
8
0-2
6
CONTINUOUS
62
  7
10
701.757
20
216.008
30
0.0
11
911.757
21
216.008
31
0.0
0
LINE
5
1f3ab
8
0-2
6
CONTINUOUS
62
  7
10
701.757
20
320.198
30
0.0
11
701.757
21
216.008
31
0.0
0
LINE
5
1f3ac
8
0-2
6
CONTINUOUS
62
  7
10
911.757
20
320.198
30
0.0
11
911.757
21
216.008
31
0.0
0
LINE
5
1f3ad
8
0-2
6
CONTINUOUS
62
  7
10
1127.027
20
1332.378
30
0.0
11
1127.027
21
778.378
31
0.0
0
LINE
5
1f3ae
8
0-2
6
CONTINUOUS
62
  7
10
985.135
20
1332.378
30
0.0
11
1127.027
21
1332.378
31
0.0
0
LINE
5
1f3af
8
0-2
6
CONTINUOUS
62
  7
10
985.135
20
778.378
30
0.0
11
1127.027
21
778.378
31
0.0
0
LINE
5
1f3b0
8
0-2
6
CONTINUOUS
62
  7
10
1127.027
20
595.946
30
0.0
11
1127.027
21
385.946
31
0.0
0
LINE
5
1f3b1
8
0-2
6
CONTINUOUS
62
  7
10
985.135
20
595.946
30
0.0
11
1127.027
21
595.946
31
0.0
0
LINE
5
1f3b2
8
0-2
6
CONTINUOUS
62
  7
10
985.135
20
385.946
30
0.0
11
1127.027
21
385.946
31
0.0
0
LINE
5
1f3b3
8
0-2
6
CONTINUOUS
62
  7
10
1054.054
20
1332.378
30
0.0
11
1054.054
21
1002.378
31
0.0
0
LINE
5
1f3b4
8
0-2
6
CONTINUOUS
62
  7
10
985.135
20
1332.378
30
0.0
11
1054.054
21
1332.378
31
0.0
0
LINE
5
1f3b5
8
0-2
6
CONTINUOUS
62
  7
10
985.135
20
1002.378
30
0.0
11
1054.054
21
1002.378
31
0.0
0
LINE
5
1f3b6
8
0-2
6
CONTINUOUS
62
  7
10
1054.054
20
1002.378
30
0.0
11
1054.054
21
778.378
31
0.0
0
LINE
5
1f3b7
8
0-2
6
CONTINUOUS
62
  7
10
985.135
20
778.378
30
0.0
11
1054.054
21
778.378
31
0.0
0
LINE
5
1f3b8
8
0-0
6
CONTINUOUS
62
  7
10
701.757
20
595.946
30
0.0
11
721.757
21
575.946
31
0.0
0
LINE
5
1f3b9
8
0-0
6
CONTINUOUS
62
  7
10
911.757
20
595.946
30
0.0
11
891.757
21
575.946
31
0.0
0
LINE
5
1f3ba
8
0-0
6
CONTINUOUS
62
  7
10
738.257
20
559.446
30
0.0
11
875.257
21
422.446
31
0.0
0
LINE
5
1f3bb
8
0-0
6
CONTINUOUS
62
  7
10
891.757
20
405.946
30
0.0
11
911.757
21
385.946
31
0.0
0
LINE
5
1f3bc
8
0-0
6
CONTINUOUS
62
  7
10
875.257
20
559.446
30
0.0
11
738.257
21
422.446
31
0.0
0
LINE
5
1f3bd
8
0-0
6
CONTINUOUS
62
  7
10
721.757
20
405.946
30
0.0
11
701.757
21
385.946
31
0.0
0
ARC
5
1f3be
8
0-0
6
CONTINUOUS
62
  7
10
755.330
20
939.805
30
0.0
40
11.515
50
277.116028
51
352.883972
0
ARC
5
1f3bf
8
0-0
6
CONTINUOUS
62
  7
10
858.183
20
939.805
30
0.0
40
11.515
50
187.116043
51
262.883972
0
ARC
5
1f3c0
8
0-0
6
CONTINUOUS
62
  7
10
739.106
20
956.453
30
0.0
40
28.311
50
277.410095
51
347.610718
0
ARC
5
1f3c1
8
0-0
6
CONTINUOUS
62
  7
10
736.870
20
956.265
30
0.0
40
17.909
50
272.838379
51
357.161621
0
ARC
5
1f3c2
8
0-0
6
CONTINUOUS
62
  7
10
858.183
20
939.805
30
0.0
40
11.515
50
187.116043
51
262.883972
0
ARC
5
1f3c3
8
0-0
6
CONTINUOUS
62
  7
10
874.408
20
956.453
30
0.0
40
28.311
50
192.389282
51
262.589905
0
ARC
5
1f3c4
8
0-0
6
CONTINUOUS
62
  7
10
876.644
20
956.265
30
0.0
40
17.909
50
182.838394
51
267.161621
0
ARC
5
1f3c5
8
0-0
6
CONTINUOUS
62
  7
10
721.207
20
1065.578
30
0.0
40
34.200
50
297.988922
51
354.630920
0
ARC
5
1f3c6
8
0-0
6
CONTINUOUS
62
  7
10
892.307
20
1065.578
30
0.0
40
34.200
50
185.369064
51
242.011078
0
ARC
5
1f3c7
8
0-0
6
CONTINUOUS
62
  7
10
701.654
20
1074.781
30
0.0
40
55.019
50
346.971985
51
23.112778
0
ARC
5
1f3c8
8
0-0
6
CONTINUOUS
62
  7
10
911.860
20
1074.781
30
0.0
40
55.019
50
516.887207
51
193.028015
0
ARC
5
1f3c9
8
0-0
6
CONTINUOUS
62
  7
10
1292.828
20
1065.578
30
0.0
40
34.200
50
297.988922
51
354.630920
0
ARC
5
1f3ca
8
0-0
6
CONTINUOUS
62
  7
10
1463.929
20
1065.578
30
0.0
40
34.200
50
185.369064
51
242.011078
0
ARC
5
1f3cb
8
0-0
6
CONTINUOUS
62
  7
10
1273.276
20
1074.781
30
0.0
40
55.019
50
346.971985
51
23.112778
0
ARC
5
1f3cc
8
0-0
6
CONTINUOUS
62
  7
10
1483.481
20
1074.781
30
0.0
40
55.019
50
516.887207
51
193.028015
0
CIRCLE
5
1f3cd
8
ADD_LINE
6
HIDDEN
62
  3
10
806.757
20
778.378
30
0.0
40
3.000
0
TEXT
5
1f3ce
100
AcDbEntity
8
0-2
62
7
100
AcDbText
10
797.382
20
680.851
30
0.0
40
9.750
41
0.800
50
0.000
1
210
100
AcDbText
0
TEXT
5
1f3cf
100
AcDbEntity
8
0-2
62
7
100
AcDbText
10
1369.003
20
680.851
30
0.0
40
9.750
41
0.800
50
0.000
1
210
100
AcDbText
0
TEXT
5
1f3d0
100
AcDbEntity
8
0-2
62
7
100
AcDbText
10
797.382
20
218.508
30
0.0
40
9.750
41
0.800
50
0.000
1
210
100
AcDbText
0
TEXT
5
1f3d1
100
AcDbEntity
8
0-2
62
7
100
AcDbText
10
1124.527
20
1046.003
30
0.0
40
9.750
41
0.800
50
90.000
1
554
100
AcDbText
0
TEXT
5
1f3d2
100
AcDbEntity
8
0-2
62
7
100
AcDbText
10
1124.527
20
481.571
30
0.0
40
9.750
41
0.800
50
90.000
1
210
100
AcDbText
0
TEXT
5
1f3d3
100
AcDbEntity
8
0-2
62
7
100
AcDbText
10
1051.554
20
1158.003
30
0.0
40
9.750
41
0.800
50
90.000
1
330
100
AcDbText
0
TEXT
5
1f3d4
100
AcDbEntity
8
0-2
62
7
100
AcDbText
10
1051.554
20
881.003
30
0.0
40
9.750
41
0.800
50
90.000
1
224
100
AcDbText
0
POINT
5
1f3d5
8
0-2
62
  7
10
701.757
20
678.351
30
0.0
0
POINT
5
1f3d6
8
0-2
62
  7
10
911.757
20
678.351
30
0.0
0
POINT
5
1f3d7
8
0-2
62
  7
10
1273.378
20
678.351
30
0.0
0
POINT
5
1f3d8
8
0-2
62
  7
10
1483.378
20
678.351
30
0.0
0
POINT
5
1f3d9
8
0-2
62
  7
10
701.757
20
216.008
30
0.0
0
POINT
5
1f3da
8
0-2
62
  7
10
911.757
20
216.008
30
0.0
0
POINT
5
1f3db
8
0-2
62
  7
10
1127.027
20
1332.378
30
0.0
0
POINT
5
1f3dc
8
0-2
62
  7
10
1127.027
20
778.378
30
0.0
0
POINT
5
1f3dd
8
0-2
62
  7
10
1127.027
20
595.946
30
0.0
0
POINT
5
1f3de
8
0-2
62
  7
10
1127.027
20
385.946
30
0.0
0
POINT
5
1f3df
8
0-2
62
  7
10
1054.054
20
1332.378
30
0.0
0
POINT
5
1f3e0
8
0-2
62
  7
10
1054.054
20
1002.378
30
0.0
0
POINT
5
1f3e1
8
0-2
62
  7
10
1054.054
20
778.378
30
0.0
0
ENDSEC
0
EOF
