  0
SECTION
  2
HEADER
  9
$ACADVER
  1
AC1009
  9
$INSBASE
 10
0
 20
0
 30
0
  9
$EXTMIN
 10
0
 20
0
  9
$EXTMAX
 10
2100
 20
1485
  9
$LIMMIN
 10
0
 20
0
  9
$LIMMAX
 10
2100
 20
1485
  9
$LTSCALE
 40
5
  0
ENDSEC
  0
SECTION
  2
TABLES
  0
TABLE
  2
LTYPE
 70
     9
  0
LTYPE
  2
CONTINUOUS
 70
    64
  3
実線
 72
    65
 73
     0
 40
0.0
  0
LTYPE
  2
DASHED1
 70
    64
  3
--  --  --  --  --  --  --  --  
 72
    65
 73
     2
 40
2.5
 49
1.25
 49
-1.25
  0
LTYPE
  2
DASHED2
 70
    64
  3
----    ----    ----    ----    
 72
    65
 73
     2
 40
5.0
 49
2.5
 49
-2.5
  0
LTYPE
  2
DASHED3
 70
    64
  3
------  ------  ------  ------  
 72
    65
 73
     2
 40
5.0
 49
3.75
 49
-1.25
  0
LTYPE
  2
CENTER1
 70
    64
  3
----- - ----- - ----- - ----- - 
 72
    65
 73
     4
 40
10.0
 49
6.25
 49
-1.25
 49
1.25
 49
-1.25
  0
LTYPE
  2
CENTER2
 70
    64
  3
----------  --  ----------  --  
 72
    65
 73
     4
 40
20.0
 49
12.5
 49
-2.5
 49
2.5
 49
-2.5
  0
LTYPE
  2
PHANTOM1
 70
    64
  3
--- - - --- - - --- - - --- - - 
 72
    65
 73
     6
 40
10.0
 49
3.25
 49
-1.25
 49
1.25
 49
-1.25
 49
1.25
 49
-1.25
  0
LTYPE
  2
PHANTOM2
 70
    64
  3
--------  -  -  --------  -  -  
 72
    65
 73
     6
 40
20.0
 49
10.0
 49
-2.5
 49
1.25
 49
-2.5
 49
1.25
 49
-2.5
  0
LTYPE
  2
DOT
 70
    64
  3
-   -   -   -   -   -   -   -   
 72
    65
 73
     2
 40
2.5
 49
0.625
 49
-1.875
  0
LTYPE
  2
DUMMY
 70
    64
  3
ダミー
 72
    65
 73
     0
 40
0.0
  0
LTYPE
  2
RAND1
 70
    64
  3
ランダム線1
 72
    65
 73
     4
 40
10.0
 49
1.0
 49
-2.0
 49
3.0
 49
-4.0
  0
LTYPE
  2
RAND2
 70
    64
  3
ランダム線2
 72
    65
 73
     4
 40
14.0
 49
2.0
 49
-3.0
 49
4.0
 49
-5.0
  0
LTYPE
  2
RAND3
 70
    64
  3
ランダム線3
 72
    65
 73
     4
 40
18.0
 49
3.0
 49
-4.0
 49
5.0
 49
-6.0
  0
LTYPE
  2
RAND4
 70
    64
  3
ランダム線4
 72
    65
 73
     4
 40
22.0
 49
4.0
 49
-5.0
 49
6.0
 49
-7.0
  0
LTYPE
  2
RAND5
 70
    64
  3
ランダム線5
 72
    65
 73
     4
 40
26.0
 49
5.0
 49
-6.0
 49
7.0
 49
-8.0
  0
LTYPE
  2
LONG1
 70
    64
  3
----------  --  ----------  --  
 72
    65
 73
     4
 40
40.0
 49
32.5
 49
-2.5
 49
2.5
 49
-2.5
  0
LTYPE
  2
LONG2
 70
    64
  3
--------  -  -  --------  -  -  
 72
    65
 73
     6
 40
40.0
 49
30.0
 49
-2.5
 49
1.25
 49
-2.5
 49
1.25
 49
-2.5
  0
LTYPE
  2
LONG3
 70
    64
  3
+++++++++++++++..+++++++++++++++
 72
    65
 73
     2
 40
40.0
 49
37.5
 49
-2.5
  0
LTYPE
  2
LONG4
 70
    64
  3
+++++++++++++++..+++++++++++++++
 72
    65
 73
     2
 40
80.0
 49
75.0
 49
-5.0
  0
LTYPE
  2
LONG5
 70
    64
  3
----------  --  ----------  --  
 72
    65
 73
     4
 40
60.0
 49
37.5
 49
-7.5
 49
7.5
 49
-7.5
  0
LTYPE
  2
dashed
 70
   64
  3
-------   -------------   ------
 72
   65
 73
    2
 40
7.5
 49
6
 49
-1.5
  0
LTYPE
  2
dashed_spaced
 70
   64
  3
----        --------        ----
 72
   65
 73
    2
 40
12
 49
6
 49
-6
  0
LTYPE
  2
long_dashed_dotted
 70
   64
  3
------------- --- --------------
 72
   65
 73
    4
 40
15.25
 49
12
 49
-1.5
 49
0.25
 49
-1.5
  0
LTYPE
  2
long_dashed_double-dotted
 70
   64
  3
----------- --- --- ------------
 72
   65
 73
    6
 40
17
 49
12
 49
-1.5
 49
0.25
 49
-1.5
 49
0.25
 49
-1.5
  0
LTYPE
  2
long_dashed_triplicate-dotted
 70
   64
  3
--------- --- --- --- ----------
 72
   65
 73
    8
 40
18.75
 49
12
 49
-1.5
 49
0.25
 49
-1.5
 49
0.25
 49
-1.5
 49
0.25
 49
-1.5
  0
LTYPE
  2
dotted
 70
   64
  3
   -       -       -       -    
 72
   65
 73
    2
 40
1.75
 49
0.25
 49
-1.5
  0
LTYPE
  2
chain
 70
   64
  3
-------------- -- --------------
 72
   65
 73
    4
 40
18.5
 49
12
 49
-1.5
 49
3.5
 49
-1.5
  0
LTYPE
  2
chain_double_dash
 70
   64
  3
------------ -- -- -------------
 72
   65
 73
    6
 40
23.5
 49
12
 49
-1.5
 49
3.5
 49
-1.5
 49
3.5
 49
-1.5
  0
LTYPE
  2
dashed_dotted
 70
   64
  3
-----------     -     ----------
 72
   65
 73
    4
 40
9.25
 49
6
 49
-1.5
 49
0.25
 49
-1.5
  0
LTYPE
  2
double-dashed_dotted
 70
   64
  3
------   -----------   -   -----
 72
   65
 73
    6
 40
16.75
 49
6
 49
-1.5
 49
6
 49
-1.5
 49
0.25
 49
-1.5
  0
LTYPE
  2
dashed_double-dotted
 70
   64
  3
---------    -    -    ---------
 72
   65
 73
    6
 40
11
 49
6
 49
-1.5
 49
0.25
 49
-1.5
 49
0.25
 49
-1.5
  0
LTYPE
  2
double-dashed_double-dotted
 70
   64
  3
-----   ---------   -   -   ----
 72
   65
 73
    8
 40
18.5
 49
6
 49
-1.5
 49
6
 49
-1.5
 49
0.25
 49
-1.5
 49
0.25
 49
-1.5
  0
LTYPE
  2
dashed_triplicate-dotted
 70
   64
  3
-------    -    -    -    ------
 72
   65
 73
    8
 40
12.75
 49
6
 49
-1.5
 49
0.25
 49
-1.5
 49
0.25
 49
-1.5
 49
0.25
 49
-1.5
  0
LTYPE
  2
double-dashed_triplicate-dotted
 70
   64
  3
-----  ---------  -  -  -  -----
 72
   65
 73
   10
 40
20.25
 49
6
 49
-1.5
 49
6
 49
-1.5
 49
0.25
 49
-1.5
 49
0.25
 49
-1.5
 49
0.25
 49
-1.5
  0
LTYPE
  2
undefined
 70
   64
  3
--------------------------------
 72
   65
 73
    0
 40
0
  0
ENDTAB
  0
TABLE
  2
STYLE
  5
3
100
AcDbSymbolTable
 70
     1
  0
STYLE
  5
10
100
AcDbSymbolTableRecord
100
AcDbTextStyleTableRecord
  2
STANDARD
 70
     0
 40
0.0
 41
1.0
 50
0.0
 71
     0
 42
0.2
  3
txt
  4
bigfont.shx
  0
STYLE
  5
26
100
AcDbSymbolTableRecord
100
AcDbTextStyleTableRecord
  2
TATEGAKI
 70
    68
 40
0.0
 41
1.0
 50
0.0
 71
     0
 42
1.0
  3
txt
  4
bigfont.shx
  0
ENDTAB
  0
TABLE
  2
LAYER
 70
   11
  0
LAYER
  2
_0-0_
 70
   64
 62
    7
  6
CONTINUOUS
  0
LAYER
  2
_0-1_
 70
   64
 62
    7
  6
CONTINUOUS
  0
LAYER
  2
_0-2_
 70
   64
 62
    7
  6
CONTINUOUS
  0
LAYER
  2
_0-3_
 70
   64
 62
    7
  6
CONTINUOUS
  0
LAYER
  2
_0-4_下地
 70
   64
 62
    7
  6
CONTINUOUS
  0
LAYER
  2
_0-5_
 70
   64
 62
    7
  6
CONTINUOUS
  0
LAYER
  2
_0-6_
 70
   64
 62
    7
  6
CONTINUOUS
  0
LAYER
  2
_0-7_
 70
   64
 62
    7
  6
CONTINUOUS
  0
LAYER
  2
_0-8_
 70
   64
 62
    7
  6
CONTINUOUS
  0
LAYER
  2
_1-0_
 70
   64
 62
    7
  6
CONTINUOUS
  0
LAYER
  2
ADD_LINE
 70
   64
 62
    7
  6
CONTINUOUS
  0
ENDTAB
  0
ENDSEC
  0
SECTION
  2
BLOCKS
  0
ENDSEC
  0
SECTION
  2
ENTITIES
  0
LINE
  8
_0-7_
  6
CONTINUOUS
 62
    7
 10
1123.7702240815033
 20
491.68126905286636
 11
1036.2490885966533
 21
491.68126905286636
  0
LINE
  8
_1-0_
  6
CONTINUOUS
 62
    5
 10
41.891871271906638
 20
1425
 11
2041.8919743718329
 21
1425
  0
LINE
  8
_0-2_
  6
CONTINUOUS
 62
    7
 10
1335.4128038561023
 20
718.6497456318624
 11
1336.7515770164698
 21
719.98845693227406
  0
LINE
  8
_0-2_
  6
CONTINUOUS
 62
    7
 10
1324.0992365656671
 20
718.6497456318624
 11
1336.7515770164698
 21
731.30208608266469
  0
LINE
  8
_0-2_
  6
CONTINUOUS
 62
    7
 10
1312.7855455553211
 20
718.6497456318624
 11
1330.7855554529137
 21
736.64975552945532
  0
LINE
  8
_0-2_
  6
CONTINUOUS
 62
    7
 10
1301.4718545449748
 20
718.6497456318624
 11
1319.471988162479
 21
736.64975552945532
  0
LINE
  8
_0-2_
  6
CONTINUOUS
 62
    7
 10
1290.1582872545398
 20
718.6497456318624
 11
1308.1582971521325
 21
736.64975552945532
  0
LINE
  8
_0-2_
  6
CONTINUOUS
 62
    7
 10
1278.8447199641048
 20
718.6497456318624
 11
1296.8447298616977
 21
736.64975552945532
  0
LINE
  8
_0-2_
  6
CONTINUOUS
 62
    7
 10
1267.5309052338471
 20
718.6497456318624
 11
1285.5310388513512
 21
736.64975552945532
  0
LINE
  8
_0-2_
  6
CONTINUOUS
 62
    7
 10
1256.2173379434123
 20
718.6497456318624
 11
1274.217347841005
 21
736.64975552945532
  0
LINE
  8
_0-2_
  6
CONTINUOUS
 62
    7
 10
1244.9036469330658
 20
718.6497456318624
 11
1262.9035331107475
 21
736.64975552945532
  0
LINE
  8
_0-2_
  6
CONTINUOUS
 62
    7
 10
1222.2762649123733
 20
718.6497456318624
 11
1240.276151090055
 21
736.64975552945532
  0
LINE
  8
_0-2_
  6
CONTINUOUS
 62
    7
 10
1210.9625739020271
 20
718.6497456318624
 11
1228.96258379962
 21
736.64975552945532
  0
LINE
  8
_0-2_
  6
CONTINUOUS
 62
    7
 10
1199.6487591717696
 20
718.6497456318624
 11
1217.6487690693623
 21
736.64975552945532
  0
LINE
  8
_0-2_
  6
CONTINUOUS
 62
    7
 10
1188.3349444415119
 20
718.6497456318624
 11
1206.3349543391048
 21
736.64975552945532
  0
LINE
  8
_0-2_
  6
CONTINUOUS
 62
    7
 10
1177.0212534311656
 20
718.6497456318624
 11
1195.0212633287586
 21
736.64975552945532
  0
LINE
  8
_0-2_
  6
CONTINUOUS
 62
    7
 10
1165.7075624208192
 20
718.6497456318624
 11
1183.7075723184123
 21
736.64975552945532
  0
LINE
  8
_0-2_
  6
CONTINUOUS
 62
    7
 10
1154.3937476905617
 20
718.6497456318624
 11
1172.3937575881546
 21
736.64975552945532
  0
LINE
  8
_0-2_
  6
CONTINUOUS
 62
    7
 10
1143.0801804001267
 20
718.6497456318624
 11
1161.0800665778083
 21
736.64975552945532
  0
LINE
  8
_0-2_
  6
CONTINUOUS
 62
    7
 10
1131.7664893897804
 20
718.6497456318624
 11
1149.7664992873733
 21
736.64975552945532
  0
LINE
  8
_0-2_
  6
CONTINUOUS
 62
    7
 10
1120.4526746595229
 20
718.6497456318624
 11
1138.4526845571158
 21
736.64975552945532
  0
LINE
  8
_0-2_
  6
CONTINUOUS
 62
    7
 10
1109.1391073690879
 20
718.6497456318624
 11
1127.1391172666808
 21
736.64975552945532
  0
LINE
  8
_0-2_
  6
CONTINUOUS
 62
    7
 10
1097.8252926388304
 20
718.6497456318624
 11
1115.8253025364231
 21
736.64975552945532
  0
LINE
  8
_0-2_
  6
CONTINUOUS
 62
    7
 10
1086.5114779085727
 20
718.6497456318624
 11
1104.5114878061656
 21
736.64975552945532
  0
LINE
  8
_0-2_
  6
CONTINUOUS
 62
    7
 10
1075.1977868982265
 20
718.6497456318624
 11
1093.1977967958192
 21
736.64975552945532
  0
LINE
  8
_0-2_
  6
CONTINUOUS
 62
    7
 10
1063.88409588788
 20
718.6497456318624
 11
1081.8841057854731
 21
736.64975552945532
  0
LINE
  8
_0-2_
  6
CONTINUOUS
 62
    7
 10
1052.5704048775337
 20
718.6497456318624
 11
1070.5704147751267
 21
736.64975552945532
  0
LINE
  8
_0-2_
  6
CONTINUOUS
 62
    7
 10
1041.2565901472763
 20
718.6497456318624
 11
1059.2567237647804
 21
736.64975552945532
  0
LINE
  8
_0-2_
  6
CONTINUOUS
 62
    7
 10
1029.9430228568413
 20
718.6497456318624
 11
1047.9430327544342
 21
736.64975552945532
  0
LINE
  8
_0-2_
  6
CONTINUOUS
 62
    7
 10
1018.6293318464949
 20
718.6497456318624
 11
1036.6293417440879
 21
736.64975552945532
  0
LINE
  8
_0-2_
  6
CONTINUOUS
 62
    7
 10
1007.3155171162374
 20
718.6497456318624
 11
1025.3156507337417
 21
736.64975552945532
  0
LINE
  8
_0-2_
  6
CONTINUOUS
 62
    7
 10
996.0017023859798
 20
718.6497456318624
 11
1014.0017122835727
 21
736.64975552945532
  0
LINE
  8
_0-2_
  6
CONTINUOUS
 62
    7
 10
984.68801137563344
 20
718.6497456318624
 11
1002.6880212732265
 21
736.64975552945532
  0
LINE
  8
_0-2_
  6
CONTINUOUS
 62
    7
 10
973.3743203652873
 20
718.6497456318624
 11
991.37433026288011
 21
736.64975552945532
  0
LINE
  8
_0-2_
  6
CONTINUOUS
 62
    7
 10
962.06062935494083
 20
718.6497456318624
 11
980.06063925253386
 21
736.64975552945532
  0
LINE
  8
_0-2_
  6
CONTINUOUS
 62
    7
 10
950.7469383445947
 20
718.6497456318624
 11
968.74682452227614
 21
736.64975552945532
  0
LINE
  8
_0-2_
  6
CONTINUOUS
 62
    7
 10
939.43312361433698
 20
718.6497456318624
 11
957.43325723184125
 21
736.64975552945532
  0
LINE
  8
_0-2_
  6
CONTINUOUS
 62
    7
 10
928.11943260399073
 20
718.6497456318624
 11
946.11956622149489
 21
736.64975552945532
  0
LINE
  8
_0-2_
  6
CONTINUOUS
 62
    7
 10
916.8057415936446
 20
718.6497456318624
 11
934.8057514912374
 21
736.64975552945532
  0
LINE
  8
_0-2_
  6
CONTINUOUS
 62
    7
 10
905.49205058329812
 20
718.6497456318624
 11
923.49206048089115
 21
736.64975552945532
  0
LINE
  8
_0-2_
  6
CONTINUOUS
 62
    7
 10
894.17823585304063
 20
718.6497456318624
 11
912.17824575063344
 21
736.64975552945532
  0
LINE
  8
_0-2_
  6
CONTINUOUS
 62
    7
 10
882.86454484269427
 20
718.6497456318624
 11
900.8645547402873
 21
736.64975552945532
  0
LINE
  8
_0-2_
  6
CONTINUOUS
 62
    7
 10
871.55085383234803
 20
718.6497456318624
 11
889.55086372994083
 21
736.64975552945532
  0
LINE
  8
_0-2_
  6
CONTINUOUS
 62
    7
 10
860.23728654191302
 20
718.6497456318624
 11
878.2371727195947
 21
736.64975552945532
  0
LINE
  8
_0-2_
  6
CONTINUOUS
 62
    7
 10
848.92347181165542
 20
718.6497456318624
 11
866.92348170924834
 21
736.64975552945532
  0
LINE
  8
_0-2_
  6
CONTINUOUS
 62
    7
 10
837.60978080130917
 20
718.6497456318624
 11
855.60979069890209
 21
736.64975552945532
  0
LINE
  8
_0-2_
  6
CONTINUOUS
 62
    7
 10
826.29608979096292
 20
718.6497456318624
 11
844.29609968855573
 21
736.64975552945532
  0
LINE
  8
_0-2_
  6
CONTINUOUS
 62
    7
 10
814.98239878061656
 20
718.6497456318624
 11
832.98240867820948
 21
736.64975552945532
  0
LINE
  8
_0-2_
  6
CONTINUOUS
 62
    7
 10
803.66870777027032
 20
718.6497456318624
 11
821.66871766786335
 21
736.64975552945532
  0
LINE
  8
_0-2_
  6
CONTINUOUS
 62
    7
 10
792.35501675992407
 20
718.6497456318624
 11
810.35502665751687
 21
736.64975552945532
  0
LINE
  8
_0-2_
  6
CONTINUOUS
 62
    7
 10
781.04132574957771
 20
718.6497456318624
 11
799.04133564717074
 21
736.64975552945532
  0
LINE
  8
_0-2_
  6
CONTINUOUS
 62
    7
 10
769.72763473923146
 20
718.6497456318624
 11
787.72764463682438
 21
736.64975552945532
  0
LINE
  8
_0-2_
  6
CONTINUOUS
 62
    7
 10
758.41394372888522
 20
718.6497456318624
 11
776.41395362647813
 21
736.64975552945532
  0
LINE
  8
_0-2_
  6
CONTINUOUS
 62
    7
 10
747.10025271853897
 20
718.6497456318624
 11
765.10026261613177
 21
736.64975552945532
  0
LINE
  8
_0-2_
  6
CONTINUOUS
 62
    7
 10
735.78656170819261
 20
718.6497456318624
 11
753.78650974582979
 21
736.64975552945532
  0
LINE
  8
_0-2_
  6
CONTINUOUS
 62
    7
 10
724.47287069784636
 20
718.6497456318624
 11
742.47275687552792
 21
736.64975552945532
  0
LINE
  8
_0-2_
  6
CONTINUOUS
 62
    7
 10
713.1591796875
 20
718.6497456318624
 11
731.15918958509292
 21
736.64975552945532
  0
LINE
  8
_0-2_
  6
CONTINUOUS
 62
    7
 10
701.84548867715375
 20
718.6497456318624
 11
719.84537485483531
 21
736.64975552945532
  0
LINE
  8
_0-2_
  6
CONTINUOUS
 62
    7
 10
690.53173580685188
 20
718.6497456318624
 11
708.53168384448907
 21
736.64975552945532
  0
LINE
  8
_0-2_
  6
CONTINUOUS
 62
    7
 10
679.2179829365499
 20
718.6497456318624
 11
697.21799283414271
 21
736.64975552945532
  0
LINE
  8
_0-2_
  6
CONTINUOUS
 62
    7
 10
667.90429192620365
 20
718.6497456318624
 11
685.90423996384084
 21
736.64975552945532
  0
LINE
  8
_0-2_
  6
CONTINUOUS
 62
    7
 10
656.59060091585729
 20
718.6497456318624
 11
674.59061081345021
 21
736.64975552945532
  0
LINE
  8
_0-2_
  6
CONTINUOUS
 62
    7
 10
645.27690990551105
 20
718.6497456318624
 11
663.27685794314834
 21
736.64975552945532
  0
LINE
  8
_0-2_
  6
CONTINUOUS
 62
    7
 10
633.96309517525333
 20
718.6497456318624
 11
651.96316693280198
 21
736.64975552945532
  0
LINE
  8
_0-2_
  6
CONTINUOUS
 62
    7
 10
622.64940416490708
 20
718.6497456318624
 11
640.64947592245574
 21
736.64975552945532
  0
LINE
  8
_0-2_
  6
CONTINUOUS
 62
    7
 10
611.33571315456084
 20
718.6497456318624
 11
629.33572305215375
 21
736.64975552945532
  0
LINE
  8
_0-2_
  6
CONTINUOUS
 62
    7
 10
600.02202214421459
 20
718.6497456318624
 11
618.02203204180751
 21
736.64975552945532
  0
LINE
  8
_0-2_
  6
CONTINUOUS
 62
    7
 10
588.70833113386834
 20
718.6497456318624
 11
606.70840289141688
 21
736.64975552945532
  0
LINE
  8
_0-2_
  6
CONTINUOUS
 62
    7
 10
577.39464012352198
 20
718.6497456318624
 11
595.3946500211149
 21
736.64975552945532
  0
LINE
  8
_0-2_
  6
CONTINUOUS
 62
    7
 10
566.08088725322
 20
718.6497456318624
 11
584.08089715081292
 21
736.64975552945532
  0
LINE
  8
_0-2_
  6
CONTINUOUS
 62
    7
 10
554.76725810282937
 20
718.6497456318624
 11
572.76714428051105
 21
736.64975552945532
  0
LINE
  8
_0-2_
  6
CONTINUOUS
 62
    7
 10
543.4535052325275
 20
718.6497456318624
 11
561.45357699007604
 21
736.64975552945532
  0
LINE
  8
_0-2_
  6
CONTINUOUS
 62
    7
 10
532.13987608213688
 20
718.6497456318624
 11
550.13982411977406
 21
736.64975552945532
  0
LINE
  8
_0-2_
  6
CONTINUOUS
 62
    7
 10
520.82606135187928
 20
718.6497456318624
 11
538.82607124947208
 21
736.64975552945532
  0
LINE
  8
_0-2_
  6
CONTINUOUS
 62
    7
 10
509.51237034153291
 20
718.6497456318624
 11
527.51238023912583
 21
736.64975552945532
  0
LINE
  8
_0-2_
  6
CONTINUOUS
 62
    7
 10
498.19867933118667
 20
718.6497456318624
 11
516.19868922877959
 21
736.64975552945532
  0
LINE
  8
_0-2_
  6
CONTINUOUS
 62
    7
 10
486.8849264608848
 20
718.6497456318624
 11
504.88499821843334
 21
736.64975552945532
  0
LINE
  8
_0-2_
  6
CONTINUOUS
 62
    7
 10
475.5712354505385
 20
718.6497456318624
 11
493.57124534813136
 21
736.64975552945532
  0
LINE
  8
_0-2_
  6
CONTINUOUS
 62
    7
 10
464.25754444019219
 20
718.6497456318624
 11
482.25755433778511
 21
736.64975552945532
  0
LINE
  8
_0-2_
  6
CONTINUOUS
 62
    7
 10
452.94385342984589
 20
718.6497456318624
 11
470.94386332743881
 21
736.64975552945532
  0
LINE
  8
_0-2_
  6
CONTINUOUS
 62
    7
 10
441.63016241949958
 20
718.6497456318624
 11
459.6301723170925
 21
736.64975552945532
  0
LINE
  8
_0-2_
  6
CONTINUOUS
 62
    7
 10
430.31640954919766
 20
718.6497456318624
 11
448.31648130674625
 21
736.64975552945532
  0
LINE
  8
_0-2_
  6
CONTINUOUS
 62
    7
 10
419.00271853885135
 20
718.6497456318624
 11
437.00272843644427
 21
736.64975552945532
  0
LINE
  8
_0-2_
  6
CONTINUOUS
 62
    7
 10
407.68896566854949
 20
718.6497456318624
 11
425.68897556614229
 21
736.64975552945532
  0
LINE
  8
_0-2_
  6
CONTINUOUS
 62
    7
 10
396.37527465820312
 20
718.6497456318624
 11
414.37528455579604
 21
736.64975552945532
  0
LINE
  8
_0-2_
  6
CONTINUOUS
 62
    7
 10
385.06158364785676
 20
718.6497456318624
 11
403.06153168549417
 21
736.64975552945532
  0
LINE
  8
_0-2_
  6
CONTINUOUS
 62
    7
 10
373.74789263751052
 20
718.6497456318624
 11
391.74796439505911
 21
736.64975552945532
  0
LINE
  8
_0-2_
  6
CONTINUOUS
 62
    7
 10
351.1204487568624
 20
718.6497456318624
 11
369.12045865445521
 21
736.64975552945532
  0
LINE
  8
_0-2_
  6
CONTINUOUS
 62
    7
 10
358.11767578125
 20
736.64975552945532
 11
376.11774753879854
 21
718.6497456318624
  0
LINE
  8
_0-2_
  6
CONTINUOUS
 62
    7
 10
369.43142865155198
 20
736.64975552945532
 11
387.43143854914479
 21
718.6497456318624
  0
LINE
  8
_0-2_
  6
CONTINUOUS
 62
    7
 10
380.74505780194261
 20
736.64975552945532
 11
398.74506769953541
 21
718.6497456318624
  0
LINE
  8
_0-2_
  6
CONTINUOUS
 62
    7
 10
392.05881067224453
 20
736.64975552945532
 11
410.05882056983745
 21
718.6497456318624
  0
LINE
  8
_0-2_
  6
CONTINUOUS
 62
    7
 10
403.37250168259089
 20
736.64975552945532
 11
421.37251158018375
 21
718.6497456318624
  0
LINE
  8
_0-2_
  6
CONTINUOUS
 62
    7
 10
414.68619269293708
 20
736.64975552945532
 11
432.68620259053
 21
718.6497456318624
  0
LINE
  8
_0-2_
  6
CONTINUOUS
 62
    7
 10
425.99982184332771
 20
736.64975552945532
 11
443.99989360087631
 21
718.6497456318624
  0
LINE
  8
_0-2_
  6
CONTINUOUS
 62
    7
 10
437.31351285367401
 20
736.64975552945532
 11
455.31358461122261
 21
718.6497456318624
  0
LINE
  8
_0-2_
  6
CONTINUOUS
 62
    7
 10
448.62720386402032
 20
736.64975552945532
 11
466.62721376161323
 21
718.6497456318624
  0
LINE
  8
_0-2_
  6
CONTINUOUS
 62
    7
 10
459.94077115445526
 20
736.64975552945532
 11
477.94084291200386
 21
718.6497456318624
  0
LINE
  8
_0-2_
  6
CONTINUOUS
 62
    7
 10
471.25446216480157
 20
736.64975552945532
 11
489.25453392235011
 21
718.6497456318624
  0
LINE
  8
_0-2_
  6
CONTINUOUS
 62
    7
 10
482.56821503510355
 20
736.64975552945532
 11
500.56822493269641
 21
718.6497456318624
  0
LINE
  8
_0-2_
  6
CONTINUOUS
 62
    7
 10
493.88184418549417
 20
736.64975552945532
 11
511.88191594304271
 21
718.6497456318624
  0
LINE
  8
_0-2_
  6
CONTINUOUS
 62
    7
 10
505.19559705579604
 20
736.64975552945532
 11
523.19560695338896
 21
718.6497456318624
  0
LINE
  8
_0-2_
  6
CONTINUOUS
 62
    7
 10
516.50922620618667
 20
736.64975552945532
 11
534.50929796373521
 21
718.6497456318624
  0
LINE
  8
_0-2_
  6
CONTINUOUS
 62
    7
 10
527.82291721653291
 20
736.64975552945532
 11
545.82298897408145
 21
718.6497456318624
  0
LINE
  8
_0-2_
  6
CONTINUOUS
 62
    7
 10
539.13648450696792
 20
736.64975552945532
 11
557.13661812447208
 21
718.6497456318624
  0
LINE
  8
_0-2_
  6
CONTINUOUS
 62
    7
 10
550.4502373772699
 20
736.64975552945532
 11
568.4502472748627
 21
718.6497456318624
  0
LINE
  8
_0-2_
  6
CONTINUOUS
 62
    7
 10
561.76399024757177
 20
736.64975552945532
 11
579.76400014516469
 21
718.6497456318624
  0
LINE
  8
_0-2_
  6
CONTINUOUS
 62
    7
 10
573.07755753800677
 20
736.64975552945532
 11
591.07762929555531
 21
718.6497456318624
  0
LINE
  8
_0-2_
  6
CONTINUOUS
 62
    7
 10
584.39131040830875
 20
736.64975552945532
 11
602.39125844594594
 21
718.6497456318624
  0
LINE
  8
_0-2_
  6
CONTINUOUS
 62
    7
 10
595.705001418655
 20
736.64975552945532
 11
613.70501131624792
 21
718.6497456318624
  0
LINE
  8
_0-2_
  6
CONTINUOUS
 62
    7
 10
607.01869242900125
 20
736.64975552945532
 11
625.01870232659417
 21
718.6497456318624
  0
LINE
  8
_0-2_
  6
CONTINUOUS
 62
    7
 10
618.33238343934761
 20
736.64975552945532
 11
636.33245519689615
 21
718.6497456318624
  0
LINE
  8
_0-2_
  6
CONTINUOUS
 62
    7
 10
629.6459507297825
 20
736.64975552945532
 11
647.64596062737542
 21
718.6497456318624
  0
LINE
  8
_0-2_
  6
CONTINUOUS
 62
    7
 10
640.95970360008448
 20
736.64975552945532
 11
658.95971349767728
 21
718.6497456318624
  0
LINE
  8
_0-2_
  6
CONTINUOUS
 62
    7
 10
652.27333275047511
 20
736.64975552945532
 11
670.2732807881124
 21
718.6497456318624
  0
LINE
  8
_0-2_
  6
CONTINUOUS
 62
    7
 10
663.58702376082135
 20
736.64975552945532
 11
681.58709551836989
 21
718.6497456318624
  0
LINE
  8
_0-2_
  6
CONTINUOUS
 62
    7
 10
674.90065291121198
 20
736.64975552945532
 11
692.90072466876052
 21
718.6497456318624
  0
LINE
  8
_0-2_
  6
CONTINUOUS
 62
    7
 10
686.21440578151396
 20
736.64975552945532
 11
704.21435381915114
 21
718.6497456318624
  0
LINE
  8
_0-2_
  6
CONTINUOUS
 62
    7
 10
697.52803493190459
 20
736.64975552945532
 11
715.5280448294975
 21
718.6497456318624
  0
LINE
  8
_0-2_
  6
CONTINUOUS
 62
    7
 10
708.84178780220645
 20
736.64975552945532
 11
726.84173583984375
 21
718.6497456318624
  0
LINE
  8
_0-2_
  6
CONTINUOUS
 62
    7
 10
720.15535509264157
 20
736.64975552945532
 11
738.15542685019011
 21
718.6497456318624
  0
LINE
  8
_0-2_
  6
CONTINUOUS
 62
    7
 10
731.4690461029877
 20
736.64975552945532
 11
749.46911786053636
 21
718.6497456318624
  0
LINE
  8
_0-2_
  6
CONTINUOUS
 62
    7
 10
742.78279897328969
 20
736.64975552945532
 11
760.78280887088272
 21
718.6497456318624
  0
LINE
  8
_0-2_
  6
CONTINUOUS
 62
    7
 10
754.09648998363605
 20
736.64975552945532
 11
772.09649988122897
 21
718.6497456318624
  0
LINE
  8
_0-2_
  6
CONTINUOUS
 62
    7
 10
765.41018099398229
 20
736.64975552945532
 11
783.41006717166397
 21
718.6497456318624
  0
LINE
  8
_0-2_
  6
CONTINUOUS
 62
    7
 10
776.7237482844173
 20
736.64975552945532
 11
794.72375818201022
 21
718.6497456318624
  0
LINE
  8
_0-2_
  6
CONTINUOUS
 62
    7
 10
788.03743929476354
 20
736.64975552945532
 11
806.03744919235646
 21
718.6497456318624
  0
LINE
  8
_0-2_
  6
CONTINUOUS
 62
    7
 10
799.3511303051099
 20
736.64975552945532
 11
817.35114020270271
 21
718.6497456318624
  0
LINE
  8
_0-2_
  6
CONTINUOUS
 62
    7
 10
810.66482131545615
 20
736.64975552945532
 11
828.66483121304907
 21
718.6497456318624
  0
LINE
  8
_0-2_
  6
CONTINUOUS
 62
    7
 10
821.97851232580228
 20
736.64975552945532
 11
839.97852222339532
 21
718.6497456318624
  0
LINE
  8
_0-2_
  6
CONTINUOUS
 62
    7
 10
833.2920796162374
 20
736.64975552945532
 11
851.29221323374156
 21
718.6497456318624
  0
LINE
  8
_0-2_
  6
CONTINUOUS
 62
    7
 10
844.60577062658353
 20
736.64975552945532
 11
862.60578052417657
 21
718.6497456318624
  0
LINE
  8
_0-2_
  6
CONTINUOUS
 62
    7
 10
855.91958535684125
 20
736.64975552945532
 11
873.91947153452281
 21
718.6497456318624
  0
LINE
  8
_0-2_
  6
CONTINUOUS
 62
    7
 10
867.23315264727614
 20
736.64975552945532
 11
885.23328626478042
 21
718.6497456318624
  0
LINE
  8
_0-2_
  6
CONTINUOUS
 62
    7
 10
878.5468436576225
 20
736.64975552945532
 11
896.54697727512666
 21
718.6497456318624
  0
LINE
  8
_0-2_
  6
CONTINUOUS
 62
    7
 10
889.86053466796875
 20
736.64975552945532
 11
907.86066828547303
 21
718.6497456318624
  0
LINE
  8
_0-2_
  6
CONTINUOUS
 62
    7
 10
901.17422567831511
 20
736.64975552945532
 11
919.17423557590791
 21
718.6497456318624
  0
LINE
  8
_0-2_
  6
CONTINUOUS
 62
    7
 10
912.48791668866136
 20
736.64975552945532
 11
930.48792658625428
 21
718.6497456318624
  0
LINE
  8
_0-2_
  6
CONTINUOUS
 62
    7
 10
923.80160769900772
 20
736.64975552945532
 11
941.80149387668916
 21
718.6497456318624
  0
LINE
  8
_0-2_
  6
CONTINUOUS
 62
    7
 10
935.11529870935397
 20
736.64975552945532
 11
953.11518488703553
 21
718.6497456318624
  0
LINE
  8
_0-2_
  6
CONTINUOUS
 62
    7
 10
946.42886599978897
 20
736.64975552945532
 11
964.42887589738177
 21
718.6497456318624
  0
LINE
  8
_0-2_
  6
CONTINUOUS
 62
    7
 10
957.74255701013522
 20
736.64975552945532
 11
975.74256690772813
 21
718.6497456318624
  0
LINE
  8
_0-2_
  6
CONTINUOUS
 62
    7
 10
969.05624802048146
 20
736.64975552945532
 11
987.05625791807438
 21
718.6497456318624
  0
LINE
  8
_0-2_
  6
CONTINUOUS
 62
    7
 10
980.36993903082771
 20
736.64975552945532
 11
998.36994892842074
 21
718.6497456318624
  0
LINE
  8
_0-2_
  6
CONTINUOUS
 62
    7
 10
991.68363004117407
 20
736.64975552945532
 11
1009.6836399387669
 21
718.6497456318624
  0
LINE
  8
_0-2_
  6
CONTINUOUS
 62
    7
 10
1002.9973210515203
 20
736.64975552945532
 11
1020.9973309491133
 21
718.6497456318624
  0
LINE
  8
_0-2_
  6
CONTINUOUS
 62
    7
 10
1014.3108883419553
 20
736.64975552945532
 11
1032.3108982395481
 21
718.6497456318624
  0
LINE
  8
_0-2_
  6
CONTINUOUS
 62
    7
 10
1025.6245793523017
 20
736.64975552945532
 11
1043.6247129698058
 21
718.6497456318624
  0
LINE
  8
_0-2_
  6
CONTINUOUS
 62
    7
 10
1036.9383940825592
 20
736.64975552945532
 11
1054.9384039801521
 21
718.6497456318624
  0
LINE
  8
_0-2_
  6
CONTINUOUS
 62
    7
 10
1048.2519613729942
 20
736.64975552945532
 11
1066.2520949904983
 21
718.6497456318624
  0
LINE
  8
_0-2_
  6
CONTINUOUS
 62
    7
 10
1059.5656523833404
 20
736.64975552945532
 11
1077.5656622809333
 21
718.6497456318624
  0
LINE
  8
_0-2_
  6
CONTINUOUS
 62
    7
 10
1070.8793433936867
 20
736.64975552945532
 11
1088.8794770111908
 21
718.6497456318624
  0
LINE
  8
_0-2_
  6
CONTINUOUS
 62
    7
 10
1082.1930344040329
 20
736.64975552945532
 11
1100.1931680215373
 21
718.6497456318624
  0
LINE
  8
_0-2_
  6
CONTINUOUS
 62
    7
 10
1093.5067254143794
 20
736.64975552945532
 11
1111.5067353119721
 21
718.6497456318624
  0
LINE
  8
_0-2_
  6
CONTINUOUS
 62
    7
 10
1104.8204164247254
 20
736.64975552945532
 11
1122.8203026024071
 21
718.6497456318624
  0
LINE
  8
_0-2_
  6
CONTINUOUS
 62
    7
 10
1116.1341074350719
 20
736.64975552945532
 11
1134.1339936127533
 21
718.6497456318624
  0
LINE
  8
_0-2_
  6
CONTINUOUS
 62
    7
 10
1127.4477984454181
 20
736.64975552945532
 11
1145.4476846230998
 21
718.6497456318624
  0
LINE
  8
_0-2_
  6
CONTINUOUS
 62
    7
 10
1138.7613657358531
 20
736.64975552945532
 11
1156.7613756334461
 21
718.6497456318624
  0
LINE
  8
_0-2_
  6
CONTINUOUS
 62
    7
 10
1150.0750567461994
 20
736.64975552945532
 11
1168.0750666437923
 21
718.6497456318624
  0
LINE
  8
_0-2_
  6
CONTINUOUS
 62
    7
 10
1161.3887477565456
 20
736.64975552945532
 11
1179.3887576541385
 21
718.6497456318624
  0
LINE
  8
_0-2_
  6
CONTINUOUS
 62
    7
 10
1172.7025624868033
 20
736.64975552945532
 11
1190.702448664485
 21
718.6497456318624
  0
LINE
  8
_0-2_
  6
CONTINUOUS
 62
    7
 10
1184.0161297772383
 20
736.64975552945532
 11
1202.016139674831
 21
718.6497456318624
  0
LINE
  8
_0-2_
  6
CONTINUOUS
 62
    7
 10
1195.3296970676731
 20
736.64975552945532
 11
1213.3298306851775
 21
718.6497456318624
  0
LINE
  8
_0-2_
  6
CONTINUOUS
 62
    7
 10
1206.6433880780196
 20
736.64975552945532
 11
1224.6433979756123
 21
718.6497456318624
  0
LINE
  8
_0-2_
  6
CONTINUOUS
 62
    7
 10
1217.9570790883658
 20
736.64975552945532
 11
1235.9570889859588
 21
718.6497456318624
  0
LINE
  8
_0-2_
  6
CONTINUOUS
 62
    7
 10
1229.2707700987121
 20
736.64975552945532
 11
1247.2709037162163
 21
718.6497456318624
  0
LINE
  8
_0-2_
  6
CONTINUOUS
 62
    7
 10
1240.5844611090583
 20
736.64975552945532
 11
1258.5844710066513
 21
718.6497456318624
  0
LINE
  8
_0-2_
  6
CONTINUOUS
 62
    7
 10
1251.8981521194046
 20
736.64975552945532
 11
1269.8980382970863
 21
718.6497456318624
  0
LINE
  8
_0-2_
  6
CONTINUOUS
 62
    7
 10
1263.2118431297508
 20
736.64975552945532
 11
1281.2118530273437
 21
718.6497456318624
  0
LINE
  8
_0-2_
  6
CONTINUOUS
 62
    7
 10
1274.5255341400971
 20
736.64975552945532
 11
1292.5256677576012
 21
718.6497456318624
  0
LINE
  8
_0-2_
  6
CONTINUOUS
 62
    7
 10
1285.8391014305321
 20
736.64975552945532
 11
1303.839111328125
 21
718.6497456318624
  0
LINE
  8
_0-2_
  6
CONTINUOUS
 62
    7
 10
1297.1529161607898
 20
736.64975552945532
 11
1315.1528023384712
 21
718.6497456318624
  0
LINE
  8
_0-2_
  6
CONTINUOUS
 62
    7
 10
1308.4664834512248
 20
736.64975552945532
 11
1326.4664933488177
 21
718.6497456318624
  0
LINE
  8
_0-2_
  6
CONTINUOUS
 62
    7
 10
1319.7802981814823
 20
736.64975552945532
 11
1336.7515770164698
 21
719.6784148345123
  0
LINE
  8
_0-2_
  6
CONTINUOUS
 62
    7
 10
1331.0938654719171
 20
736.64975552945532
 11
1336.7515770164698
 21
730.99204398490292
  0
LINE
  8
_0-2_
  6
CONTINUOUS
 62
    3
 10
384.05883376662803
 20
638.64972913587417
 11
386.05888985298776
 21
638.64972913587417
  0
LINE
  8
_0-2_
  6
CONTINUOUS
 62
    3
 10
391.05890634897605
 20
716.64975140545823
 11
427.05867870433912
 21
716.64975140545823
  0
LINE
  8
_0-2_
  6
CONTINUOUS
 62
    3
 10
386.05888985298776
 20
711.64973490947
 11
386.05888985298776
 21
698.64974150786543
  0
LINE
  8
_0-2_
  6
CONTINUOUS
 62
    3
 10
384.05883376662803
 20
713.64972913587417
 11
384.05883376662803
 21
698.64974150786543
  0
LINE
  8
_0-2_
  6
CONTINUOUS
 62
    3
 10
389.05885026261615
 20
718.6497456318624
 11
429.05873479069891
 21
718.6497456318624
  0
LINE
  8
_0-2_
  6
CONTINUOUS
 62
    3
 10
386.05888985298776
 20
625.64973573426948
 11
386.05888985298776
 21
638.64972913587417
  0
LINE
  8
_0-2_
  6
CONTINUOUS
 62
    3
 10
384.05883376662803
 20
623.64974150786531
 11
384.05883376662803
 21
638.64972913587417
  0
LINE
  8
_0-2_
  6
CONTINUOUS
 62
    3
 10
427.05867870433912
 20
620.64971923828125
 11
391.05890634897605
 21
620.64971923828125
  0
LINE
  8
_0-2_
  6
CONTINUOUS
 62
    3
 10
432.05869520032729
 20
625.64973573426948
 11
432.05869520032729
 21
711.64973490947
  0
LINE
  8
_0-2_
  6
CONTINUOUS
 62
    3
 10
434.05875128668708
 20
623.64974150786531
 11
434.05875128668708
 21
713.64972913587417
  0
LINE
  8
_0-2_
  6
CONTINUOUS
 62
    3
 10
429.05873479069891
 20
618.64978687183282
 11
389.05885026261615
 21
618.64978687183282
  0
LINE
  8
ADD_LINE
  6
DOT
 62
    3
 10
429.05873479069891
 20
718.6497456318624
 11
436.05002325934333
 21
718.6497456318624
  0
LINE
  8
ADD_LINE
  6
DOT
 62
    3
 10
434.05875128668708
 20
713.64972913587417
 11
434.05875128668708
 21
721.2059845795502
  0
LINE
  8
ADD_LINE
  6
DOT
 62
    3
 10
429.05873479069891
 20
618.64978687183282
 11
438.55522774361276
 21
618.64978687183282
  0
LINE
  8
ADD_LINE
  6
DOT
 62
    3
 10
434.05875128668708
 20
623.64974150786531
 11
434.05875128668708
 21
616.49130743903083
  0
LINE
  8
_0-2_
  6
CONTINUOUS
 62
    3
 10
837.41294242240292
 20
698.64974150786543
 11
835.41288633604313
 21
698.64974150786543
  0
LINE
  8
_0-2_
  6
CONTINUOUS
 62
    3
 10
835.41288633604313
 20
638.64972913587417
 11
837.41294242240292
 21
638.64972913587417
  0
LINE
  8
_0-2_
  6
CONTINUOUS
 62
    3
 10
842.41295891839115
 20
716.64975140545823
 11
878.41273127375428
 21
716.64975140545823
  0
LINE
  8
_0-2_
  6
CONTINUOUS
 62
    3
 10
837.41294242240292
 20
711.64973490947
 11
837.41294242240292
 21
698.64974150786543
  0
LINE
  8
_0-2_
  6
CONTINUOUS
 62
    3
 10
835.41288633604313
 20
713.64972913587417
 11
835.41288633604313
 21
698.64974150786543
  0
LINE
  8
_0-2_
  6
CONTINUOUS
 62
    3
 10
840.41290283203125
 20
718.6497456318624
 11
880.41278736011407
 21
718.6497456318624
  0
LINE
  8
_0-2_
  6
CONTINUOUS
 62
    3
 10
837.41294242240292
 20
625.64973573426948
 11
837.41294242240292
 21
638.64972913587417
  0
LINE
  8
_0-2_
  6
CONTINUOUS
 62
    3
 10
835.41288633604313
 20
623.64974150786531
 11
835.41288633604313
 21
638.64972913587417
  0
LINE
  8
_0-2_
  6
CONTINUOUS
 62
    3
 10
878.41273127375428
 20
620.64971923828125
 11
842.41295891839115
 21
620.64971923828125
  0
LINE
  8
_0-2_
  6
CONTINUOUS
 62
    3
 10
883.41274776974251
 20
625.64973573426948
 11
883.41274776974251
 21
711.64973490947
  0
LINE
  8
_0-2_
  6
CONTINUOUS
 62
    3
 10
885.41280385610219
 20
623.64974150786531
 11
885.41280385610219
 21
713.64972913587417
  0
LINE
  8
_0-2_
  6
CONTINUOUS
 62
    3
 10
880.41278736011407
 20
618.64978687183282
 11
840.41290283203125
 21
618.64978687183282
  0
LINE
  8
ADD_LINE
  6
DOT
 62
    3
 10
880.41278736011407
 20
718.6497456318624
 11
887.40407582875844
 21
718.6497456318624
  0
LINE
  8
ADD_LINE
  6
DOT
 62
    3
 10
885.41280385610219
 20
713.64972913587417
 11
885.41280385610219
 21
721.2059845795502
  0
LINE
  8
_0-2_
  6
CONTINUOUS
 62
    3
 10
1287.4129424224029
 20
698.64974150786543
 11
1285.4128863360434
 21
698.64974150786543
  0
LINE
  8
_0-2_
  6
CONTINUOUS
 62
    3
 10
1285.4128863360434
 20
638.64972913587417
 11
1287.4129424224029
 21
638.64972913587417
  0
LINE
  8
_0-2_
  6
CONTINUOUS
 62
    3
 10
1292.4129589183913
 20
716.64975140545823
 11
1328.4127312737542
 21
716.64975140545823
  0
LINE
  8
_0-2_
  6
CONTINUOUS
 62
    3
 10
1287.4129424224029
 20
711.64973490947
 11
1287.4129424224029
 21
698.64974150786543
  0
LINE
  8
_0-2_
  6
CONTINUOUS
 62
    3
 10
1285.4128863360434
 20
713.64972913587417
 11
1285.4128863360434
 21
698.64974150786543
  0
LINE
  8
_0-2_
  6
CONTINUOUS
 62
    3
 10
1290.4129028320312
 20
718.6497456318624
 11
1330.4127873601142
 21
718.6497456318624
  0
LINE
  8
_0-2_
  6
CONTINUOUS
 62
    3
 10
1287.4129424224029
 20
625.64973573426948
 11
1287.4129424224029
 21
638.64972913587417
  0
LINE
  8
_0-2_
  6
CONTINUOUS
 62
    3
 10
1285.4128863360434
 20
623.64974150786531
 11
1285.4128863360434
 21
638.64972913587417
  0
LINE
  8
_0-2_
  6
CONTINUOUS
 62
    3
 10
1328.4127312737542
 20
620.64971923828125
 11
1292.4129589183913
 21
620.64971923828125
  0
LINE
  8
_0-2_
  6
CONTINUOUS
 62
    3
 10
1333.4127477697425
 20
625.64973573426948
 11
1333.4127477697425
 21
711.64973490947
  0
LINE
  8
_0-2_
  6
CONTINUOUS
 62
    3
 10
1335.4128038561023
 20
623.64974150786531
 11
1335.4128038561023
 21
713.64972913587417
  0
LINE
  8
_0-2_
  6
CONTINUOUS
 62
    3
 10
1330.4127873601142
 20
618.64978687183282
 11
1290.4129028320312
 21
618.64978687183282
  0
LINE
  8
ADD_LINE
  6
DOT
 62
    3
 10
1330.4127873601142
 20
718.6497456318624
 11
1337.4040758287586
 21
718.6497456318624
  0
LINE
  8
ADD_LINE
  6
DOT
 62
    3
 10
1335.4128038561023
 20
713.64972913587417
 11
1335.4128038561023
 21
721.2059845795502
  0
LINE
  8
ADD_LINE
  6
DOT
 62
    7
 10
395.51845241237334
 20
761.64977614944053
 11
435.58217641469594
 21
761.64977614944053
  0
LINE
  8
ADD_LINE
  6
DOT
 62
    7
 10
395.51845241237334
 20
761.64977614944053
 11
370.29851965002109
 21
761.64977614944053
  0
LINE
  8
_0-1_
  6
CONTINUOUS
 62
    7
 10
602.43245717641469
 20
786.64979676942562
 11
584.02182089315875
 21
793.92724939294772
  0
LINE
  8
ADD_LINE
  6
DOT
 62
    7
 10
556.74281764674834
 20
812.16214154217698
 11
558.40258211702917
 21
812.16214154217698
  0
LINE
  8
_0-1_
  6
CONTINUOUS
 62
    7
 10
552.43241593644427
 20
812.16214154217698
 11
562.43244892842063
 21
812.16214154217698
  0
LINE
  8
_0-1_
  6
CONTINUOUS
 62
    7
 10
552.43241593644427
 20
812.16214154217698
 11
552.43241593644427
 21
797.16215391416813
  0
LINE
  8
_0-4_下地
  6
CONTINUOUS
 62
    7
 10
655.51844416437928
 20
761.64977614944053
 11
695.58216816670199
 21
761.64977614944053
  0
LINE
  8
_0-4_下地
  6
CONTINUOUS
 62
    7
 10
655.51844416437928
 20
761.64977614944053
 11
630.29851140202709
 21
761.64977614944053
  0
LINE
  8
_0-1_
  6
CONTINUOUS
 62
    7
 10
695.58216816670199
 20
761.64977614944053
 11
893.47377467799834
 21
761.64977614944053
  0
LINE
  8
_0-1_
  6
CONTINUOUS
 62
    7
 10
862.43244892842074
 20
786.64979676942562
 11
844.02181264516469
 21
793.92724939294772
  0
LINE
  8
_0-1_
  6
CONTINUOUS
 62
    7
 10
562.43244892842063
 20
812.16214154217698
 11
562.43244892842063
 21
808.94870242557022
  0
LINE
  8
ADD_LINE
  6
DOT
 62
    7
 10
862.43244892842074
 20
716.92663656698699
 11
862.43244892842074
 21
715.63450581318637
  0
LINE
  8
_0-1_
  6
CONTINUOUS
 62
    7
 10
862.43244892842074
 20
786.64979676942562
 11
844.02181264516469
 21
793.92724939294772
  0
LINE
  8
_1-0_
  6
CONTINUOUS
 62
    5
 10
41.891871271906638
 20
1425
 11
2041.8919743718329
 21
1425
  0
LINE
  8
_1-0_
  6
CONTINUOUS
 62
    5
 10
2041.8919743718329
 20
174.99998969000742
 11
41.891809411951044
 21
174.99998969000742
  0
LINE
  8
_1-0_
  6
CONTINUOUS
 62
    5
 10
1866.8921393317146
 20
75
 11
1866.8921393317146
 21
174.99998969000742
  0
LINE
  8
_1-0_
  6
CONTINUOUS
 62
    5
 10
693.24330510319896
 20
174.99998969000742
 11
693.24330510319896
 21
75
  0
LINE
  8
_1-0_
  6
CONTINUOUS
 62
    5
 10
1082.4324324324325
 20
174.99998969000742
 11
1082.4324324324325
 21
75
  0
LINE
  8
_1-0_
  6
CONTINUOUS
 62
    5
 10
693.24330510319896
 20
124.99999484500371
 11
1082.4324324324325
 21
124.99999484500371
  0
LINE
  8
_1-0_
  6
CONTINUOUS
 62
    5
 10
1990.5406642604521
 20
154.05405405405403
 11
1927.7025789827915
 21
91.216223948710677
  0
LINE
  8
_0-1_
  6
CONTINUOUS
 62
    7
 10
812.43240768845021
 20
812.16214154217698
 11
822.43244068042657
 21
812.16214154217698
  0
LINE
  8
_0-1_
  6
CONTINUOUS
 62
    7
 10
812.43240768845021
 20
812.16214154217698
 11
812.43240768845021
 21
797.16215391416813
  0
LINE
  8
ADD_LINE
  6
DOT
 62
    7
 10
915.51843591638522
 20
761.64977614944053
 11
955.58215991870782
 21
761.64977614944053
  0
LINE
  8
ADD_LINE
  6
DOT
 62
    7
 10
915.51843591638522
 20
761.64977614944053
 11
890.29837943412167
 21
761.64977614944053
  0
LINE
  8
_0-1_
  6
CONTINUOUS
 62
    7
 10
822.43244068042657
 20
812.16214154217698
 11
822.43244068042657
 21
808.94870242557022
  0
LINE
  8
_0-3_
  6
CONTINUOUS
 62
    7
 10
1072.432399440456
 20
798.64976212785052
 11
1072.432399440456
 21
783.64977449984167
  0
LINE
  8
_0-3_
  6
CONTINUOUS
 62
    7
 10
1104.0218043971706
 20
793.92724939294772
 11
1122.4324406804267
 21
786.64979676942562
  0
LINE
  8
ADD_LINE
  6
DOT
 62
    2
 10
1316.3021603146115
 20
845.48566663587417
 11
1316.3021603146115
 21
853.53760590424417
  0
LINE
  8
_0-2_
  6
CONTINUOUS
 62
    7
 10
1292.4323829444679
 20
798.64982398780626
 11
1292.4323829444679
 21
783.6498363597974
  0
LINE
  8
ADD_LINE
  6
DOT
 62
    7
 10
1316.3021603146115
 20
845.48566663587417
 11
1316.3021603146115
 21
786.08742791253178
  0
LINE
  8
_0-1_
  6
CONTINUOUS
 62
    7
 10
348.6486486486487
 20
761.64977614944053
 11
373.47385303394219
 21
761.64977614944053
  0
LINE
  8
_0-1_
  6
CONTINUOUS
 62
    7
 10
348.6486486486487
 20
761.64977614944053
 11
633.47384478594813
 21
761.64977614944053
  0
LINE
  8
_0-1_
  6
CONTINUOUS
 62
    7
 10
348.6486486486487
 20
736.64975552945532
 11
1337.4324076884502
 21
736.64975552945532
  0
LINE
  8
_0-5_
  6
DASHED1
 62
    3
 10
348.11742627942891
 20
738.3950723184123
 11
1335.164126834354
 21
738.3950723184123
  0
LINE
  8
_0-5_
  6
CONTINUOUS
 62
    7
 10
1334.5603736671242
 20
738.86545542124156
 11
1314.5604314030829
 21
738.86545542124156
  0
LINE
  8
_0-5_
  6
CONTINUOUS
 62
    7
 10
1190.6146075274494
 20
751.58924412082979
 11
1190.6146075274494
 21
740.47010267103042
  0
LINE
  8
_0-1_
  6
CONTINUOUS
 62
    7
 10
348.6486486486487
 20
743.6497662518475
 11
1190.6146075274494
 21
743.6497662518475
  0
LINE
  8
ADD_LINE
  6
DOT
 62
    7
 10
955.58215991870782
 20
761.64977614944053
 11
1153.4738901499156
 21
761.64977614944053
  0
LINE
  8
_0-5_
  6
CONTINUOUS
 62
    7
 10
1190.6146075274494
 20
761.64977614944053
 11
1190.6146075274494
 21
751.58924412082979
  0
LINE
  8
_0-1_
  6
CONTINUOUS
 62
    7
 10
348.6486486486487
 20
761.64977614944053
 11
1190.6146075274494
 21
761.64977614944053
  0
LINE
  8
_0-5_
  6
CONTINUOUS
 62
    7
 10
767.43244480442354
 20
740.64974398226354
 11
767.43244480442354
 21
743.6497662518475
  0
LINE
  8
_0-5_
  6
CONTINUOUS
 62
    7
 10
767.43244480442354
 20
743.6497662518475
 11
817.43242418443845
 21
743.6497662518475
  0
LINE
  8
_0-5_
  6
CONTINUOUS
 62
    7
 10
817.43242418443845
 20
743.6497662518475
 11
817.43242418443845
 21
740.64974398226354
  0
LINE
  8
_0-5_
  6
CONTINUOUS
 62
    7
 10
817.43242418443845
 20
740.64974398226354
 11
767.43244480442354
 21
740.64974398226354
  0
LINE
  8
_0-5_
  6
CONTINUOUS
 62
    7
 10
767.43244480442354
 20
740.64974398226354
 11
817.43242418443845
 21
743.6497662518475
  0
LINE
  8
_0-5_
  6
CONTINUOUS
 62
    7
 10
1140.6146900073902
 20
740.64974398226354
 11
1140.6146900073902
 21
743.6497662518475
  0
LINE
  8
_0-5_
  6
CONTINUOUS
 62
    7
 10
1140.6146900073902
 20
743.6497662518475
 11
1190.6146075274494
 21
743.6497662518475
  0
LINE
  8
_0-5_
  6
CONTINUOUS
 62
    7
 10
1190.6146075274494
 20
743.6497662518475
 11
1190.6146075274494
 21
740.64974398226354
  0
LINE
  8
_0-5_
  6
CONTINUOUS
 62
    7
 10
1190.6146075274494
 20
740.64974398226354
 11
1140.6146900073902
 21
740.64974398226354
  0
LINE
  8
_0-5_
  6
CONTINUOUS
 62
    7
 10
1140.6146900073902
 20
740.64974398226354
 11
1190.6146075274494
 21
743.6497662518475
  0
LINE
  8
_0-5_
  6
CONTINUOUS
 62
    7
 10
505.72975777290964
 20
740.64974398226354
 11
505.72975777290964
 21
743.6497662518475
  0
LINE
  8
_0-5_
  6
CONTINUOUS
 62
    7
 10
505.72975777290964
 20
743.6497662518475
 11
555.72973715292437
 21
743.6497662518475
  0
LINE
  8
_0-5_
  6
CONTINUOUS
 62
    7
 10
555.72973715292437
 20
743.6497662518475
 11
555.72973715292437
 21
740.64974398226354
  0
LINE
  8
_0-5_
  6
CONTINUOUS
 62
    7
 10
555.72973715292437
 20
740.64974398226354
 11
505.72975777290964
 21
740.64974398226354
  0
LINE
  8
_0-5_
  6
CONTINUOUS
 62
    7
 10
505.72975777290964
 20
740.64974398226354
 11
555.72973715292437
 21
743.6497662518475
  0
LINE
  8
_0-5_
  6
CONTINUOUS
 62
    7
 10
964.34363287848396
 20
740.64974398226354
 11
964.34363287848396
 21
743.6497662518475
  0
LINE
  8
_0-5_
  6
CONTINUOUS
 62
    7
 10
964.34363287848396
 20
743.6497662518475
 11
1014.3436122584989
 21
743.6497662518475
  0
LINE
  8
_0-5_
  6
CONTINUOUS
 62
    7
 10
1014.3436122584989
 20
743.6497662518475
 11
1014.3436122584989
 21
740.64974398226354
  0
LINE
  8
_0-5_
  6
CONTINUOUS
 62
    7
 10
1014.3436122584989
 20
740.64974398226354
 11
964.34363287848396
 21
740.64974398226354
  0
LINE
  8
_0-5_
  6
CONTINUOUS
 62
    7
 10
964.34363287848396
 20
740.64974398226354
 11
1014.3436122584989
 21
743.6497662518475
  0
LINE
  8
_0-1_
  6
CONTINUOUS
 62
    7
 10
348.6486486486487
 20
740.64974398226354
 11
1190.6146075274494
 21
740.64974398226354
  0
LINE
  8
_0-5_
  6
CONTINUOUS
 62
    3
 10
1194.5604066591004
 20
740.64974398226354
 11
1311.1969818940033
 21
740.64974398226354
  0
LINE
  8
_0-5_
  6
CONTINUOUS
 62
    3
 10
1194.5604066591004
 20
760.02044677734375
 11
1216.9554426863388
 21
760.02044677734375
  0
LINE
  8
_0-5_
  6
CONTINUOUS
 62
    3
 10
1194.5604066591004
 20
760.02044677734375
 11
1194.5604066591004
 21
740.64974398226354
  0
LINE
  8
_0-5_
  6
CONTINUOUS
 62
    3
 10
1216.9554426863388
 20
760.02044677734375
 11
1213.195223421664
 21
755.24758003853458
  0
LINE
  8
_0-7_
  6
CONTINUOUS
 62
    7
 10
1378.092709103146
 20
740.64974398226354
 11
1443.2296340529983
 21
740.64974398226354
  0
LINE
  8
_0-7_
  6
CONTINUOUS
 62
    7
 10
1228.0651195629225
 20
824.41393878008864
 11
1270.6737621410475
 21
833.5026509052999
  0
LINE
  8
_0-7_
  6
CONTINUOUS
 62
    7
 10
1217.2962910420185
 20
748.64217397328969
 11
1123.7702240815033
 21
491.68126905286636
  0
LINE
  8
_0-7_
  6
CONTINUOUS
 62
    7
 10
1217.2962910420185
 20
748.64217397328969
 11
1222.9502909892315
 21
740.76727789801521
  0
LINE
  8
_0-2_
  6
CONTINUOUS
 62
    7
 10
1233.5898322028083
 20
718.6497456318624
 11
1251.5899658203125
 21
736.64975552945532
  0
LINE
  8
ADD_LINE
  6
DOT
 62
    7
 10
1217.9570790883658
 20
736.64975552945532
 11
1337.4324076884502
 21
736.64975552945532
  0
LINE
  8
ADD_LINE
  6
DOT
 62
    7
 10
1336.7515770164698
 20
718.6497456318624
 11
1336.7515770164698
 21
739.84921429608323
  0
LINE
  8
_0-6_
  6
CONTINUOUS
 62
    3
 10
384.05883376662803
 20
698.64974150786543
 11
386.05888985298776
 21
698.64974150786543
  0
LINE
  8
_0-6_
  6
CONTINUOUS
 62
    7
 10
1194.5604066591004
 20
563.67787541569896
 11
1311.1969818940033
 21
563.67787541569896
  0
LINE
  8
_0-6_
  6
CONTINUOUS
 62
    7
 10
1194.5604066591004
 20
651.16090516786312
 11
1194.5604066591004
 21
563.67787541569896
  0
LINE
  8
_0-6_
  6
CONTINUOUS
 62
    7
 10
1311.1969818940033
 20
651.16090516786312
 11
1311.1969818940033
 21
563.67787541569896
  0
LINE
  8
_0-2_
  6
CONTINUOUS
 62
    7
 10
348.6486486486487
 20
718.6497456318624
 11
1336.7515770164698
 21
718.6497456318624
  0
LINE
  8
_0-2_
  6
CONTINUOUS
 62
    7
 10
348.6486486486487
 20
723.49146250131969
 11
353.49036551810599
 21
718.6497456318624
  0
LINE
  8
_0-2_
  6
CONTINUOUS
 62
    7
 10
348.6486486486487
 20
727.49163653399489
 11
357.80676764410896
 21
736.64975552945532
  0
LINE
  8
_0-2_
  6
CONTINUOUS
 62
    7
 10
348.6486486486487
 20
734.80515351166605
 11
364.80405652845235
 21
718.6497456318624
  0
LINE
  8
_1-0_
  6
CONTINUOUS
 62
    5
 10
2041.8919743718329
 20
75
 11
41.891871271906638
 21
75
  0
LINE
  8
_0-6_
  6
CONTINUOUS
 62
    7
 10
1570.9609160552154
 20
740.64974398226354
 11
1378.092709103146
 21
740.64974398226354
  0
LINE
  8
_0-6_
  6
CONTINUOUS
 62
    7
 10
393.77542444177578
 20
754.8954731709249
 11
527.43950921135979
 21
370.71622900060709
  0
LINE
  8
_0-6_
  6
CONTINUOUS
 62
    7
 10
486.7535049850876
 20
487.65653661779459
 11
541.98321780642948
 21
487.65653661779459
  0
LINE
  8
_1-0_
  6
CONTINUOUS
 62
    7
 10
501.34543341559333
 20
445.71619807062922
 11
541.98321780642948
 21
445.71619807062922
  0
LINE
  8
_1-0_
  6
CONTINUOUS
 62
    7
 10
510.04346899084146
 20
420.71620838062188
 11
541.98321780642948
 21
420.71620838062188
  0
LINE
  8
_1-0_
  6
CONTINUOUS
 62
    7
 10
518.74147363611178
 20
395.71621869061448
 11
541.98321780642948
 21
395.71621869061448
  0
LINE
  8
_1-0_
  6
CONTINUOUS
 62
    7
 10
527.43950921135979
 20
370.71622900060709
 11
541.98321780642948
 21
370.71622900060709
  0
LINE
  8
_0-5_
  6
CONTINUOUS
 62
    7
 10
1314.5604314030829
 20
738.86545542124156
 11
1314.5604314030829
 21
868.88759716137042
  0
LINE
  8
_0-5_
  6
CONTINUOUS
 62
    7
 10
1314.5604314030829
 20
868.88759716137042
 11
1334.5603736671242
 21
868.88759716137042
  0
LINE
  8
_0-5_
  6
CONTINUOUS
 62
    7
 10
1334.5603736671242
 20
868.88759716137042
 11
1334.5603736671242
 21
738.86545542124156
  0
LINE
  8
_0-5_
  6
CONTINUOUS
 62
    7
 10
1334.5603736671242
 20
738.86545542124156
 11
1314.5604314030829
 21
868.88759716137042
  0
LINE
  8
_0-5_
  6
CONTINUOUS
 62
    3
 10
1311.1969818940033
 20
868.88759716137042
 11
1293.3065878378379
 21
862.34287571262666
  0
LINE
  8
_0-5_
  6
CONTINUOUS
 62
    3
 10
1311.1969818940033
 20
740.64974398226354
 11
1311.1969818940033
 21
868.88759716137042
  0
LINE
  8
_0-5_
  6
CONTINUOUS
 62
    7
 10
1326.0827141839104
 20
895.44246776683917
 11
1331.2361433699325
 21
881.35547122439834
  0
LINE
  8
_0-5_
  6
CONTINUOUS
 62
    7
 10
1246.7141641152873
 20
850.43539098791166
 11
1241.5608586491767
 21
864.5223875303526
  0
LINE
  8
_0-5_
  6
CONTINUOUS
 62
    7
 10
1241.5608586491767
 20
864.5223875303526
 11
1326.0827141839104
 21
895.44246776683917
  0
LINE
  8
_0-5_
  6
CONTINUOUS
 62
    7
 10
1241.5608586491767
 20
864.5223875303526
 11
1331.2361433699325
 21
881.35547122439834
  0
LINE
  8
_0-5_
  6
CONTINUOUS
 62
    3
 10
1234.2780860694679
 20
865.18447463576865
 11
1332.8182735958615
 21
901.23274519636823
  0
LINE
  8
_0-5_
  6
CONTINUOUS
 62
    3
 10
1332.8182735958615
 20
901.23274519636823
 11
1332.8182735958615
 21
968.02566115920615
  0
LINE
  8
_0-5_
  6
CONTINUOUS
 62
    7
 10
1331.2361433699325
 20
881.35547122439834
 11
1246.7141641152873
 21
850.43539098791166
  0
LINE
  8
_0-6_
  6
CONTINUOUS
 62
    7
 10
1300.8183659733954
 20
899.96591516443209
 11
1312.81833133182
 21
899.96591516443209
  0
LINE
  8
_0-6_
  6
CONTINUOUS
 62
    7
 10
1312.81833133182
 20
924.60405504381345
 11
1312.81833133182
 21
964.60406329180739
  0
LINE
  8
_0-6_
  6
CONTINUOUS
 62
    7
 10
1312.81833133182
 20
964.60406329180739
 11
1332.8182735958615
 21
964.60406329180739
  0
LINE
  8
_0-6_
  6
CONTINUOUS
 62
    7
 10
1332.8182735958615
 20
964.60406329180739
 11
1332.8182735958615
 21
924.60405504381345
  0
LINE
  8
_0-6_
  6
CONTINUOUS
 62
    7
 10
1332.8182735958615
 20
924.60405504381345
 11
1312.81833133182
 21
924.60405504381345
  0
LINE
  8
_0-6_
  6
CONTINUOUS
 62
    7
 10
1312.81833133182
 20
964.60406329180739
 11
1332.8182735958615
 21
924.60405504381345
  0
LINE
  8
_0-7_
  6
CONTINUOUS
 62
    7
 10
1297.2972972972975
 20
989.48160119958834
 11
1243.7422881255279
 21
1136.6227433488175
  0
LINE
  8
_0-7_
  6
CONTINUOUS
 62
    7
 10
1281.1219086518158
 20
882.7429900298248
 11
1216.1329527158996
 21
1061.2987209010769
  0
LINE
  8
_0-7_
  6
CONTINUOUS
 62
    7
 10
1255.0017898147171
 20
860.54089520428636
 11
1208.8240752349029
 21
987.41318986222552
  0
LINE
  8
_0-7_
  6
CONTINUOUS
 62
    7
 10
1191.007541965794
 20
906.25101037927584
 11
1228.0651195629225
 21
824.41393878008864
  0
LINE
  8
_0-7_
  6
CONTINUOUS
 62
    7
 10
1191.007541965794
 20
906.25101037927584
 11
1177.5356808224242
 21
943.26466740788646
  0
LINE
  8
_0-7_
  6
CONTINUOUS
 62
    7
 10
1138.5239472260346
 20
874.75105491844386
 11
1184.0182330157306
 21
769.73437747439834
  0
LINE
  8
_0-7_
  6
CONTINUOUS
 62
    7
 10
1297.2972972972975
 20
989.48160119958834
 11
1301.3830236486488
 21
989.48160119958834
  0
LINE
  8
_0-7_
  6
CONTINUOUS
 62
    7
 10
1243.7422881255279
 20
1136.6227433488175
 11
1224.3243243243244
 21
1136.6227433488175
  0
LINE
  8
_0-7_
  6
CONTINUOUS
 62
    7
 10
1216.1329527158996
 20
1061.2987209010769
 11
1203.4825917836783
 21
1061.2987209010769
  0
LINE
  8
_0-7_
  6
CONTINUOUS
 62
    7
 10
1208.8240752349029
 20
987.41318986222552
 11
1191.4202715899494
 21
987.41318986222552
  0
LINE
  8
_0-7_
  6
CONTINUOUS
 62
    7
 10
1177.5356808224242
 20
943.26466740788646
 11
1161.2642855257602
 21
943.26466740788646
  0
LINE
  8
_0-7_
  6
CONTINUOUS
 62
    7
 10
1138.5239472260346
 20
874.75105491844386
 11
1129.9020303262248
 21
874.75105491844386
  0
LINE
  8
_0-7_
  6
CONTINUOUS
 62
    3
 10
1332.8182735958615
 20
968.02566115920615
 11
1332.8182735958615
 21
1051.1822674725508
  0
LINE
  8
_0-7_
  6
CONTINUOUS
 62
    7
 10
1443.2296340529983
 20
901.23274519636823
 11
1443.2296340529983
 21
1051.2327451963683
  0
LINE
  8
_0-7_
  6
CONTINUOUS
 62
    7
 10
1378.092709103146
 20
901.23274519636823
 11
1443.2296340529983
 21
901.23274519636823
  0
LINE
  8
_0-7_
  6
CONTINUOUS
 62
    7
 10
1378.092709103146
 20
1051.2327451963683
 11
1443.2296340529983
 21
1051.2327451963683
  0
LINE
  8
_0-5_
  6
CONTINUOUS
 62
    7
 10
1337.4324076884502
 20
1170.4106511296454
 11
1337.4324076884502
 21
437.83783783783792
  0
LINE
  8
_0-6_
  6
CONTINUOUS
 62
    7
 10
1312.81833133182
 20
899.96591516443209
 11
1312.81833133182
 21
1170.4106511296454
  0
LINE
  8
_0-6_
  6
CONTINUOUS
 62
    7
 10
1300.8183659733954
 20
899.96591516443209
 11
1300.8183659733954
 21
1170.4106511296454
  0
LINE
  8
_0-5_
  6
DASHED1
 62
    3
 10
1335.164126834354
 20
738.3950723184123
 11
1335.164126834354
 21
1101.2326627164275
  0
LINE
  8
_0-6_
  6
CONTINUOUS
 62
    7
 10
1443.2296340529983
 20
1051.2327451963683
 11
1378.092709103146
 21
1051.2327451963683
  0
LINE
  8
_0-6_
  6
CONTINUOUS
 62
    7
 10
1443.2296340529983
 20
1101.2326627164275
 11
1378.092709103146
 21
1101.2326627164275
  0
LINE
  8
_0-6_
  6
CONTINUOUS
 62
    7
 10
1443.2296340529983
 20
1051.2327451963683
 11
1443.2296340529983
 21
1101.2326627164275
  0
LINE
  8
_0-6_
  6
CONTINUOUS
 62
    7
 10
1570.9609160552154
 20
1101.2326627164275
 11
1378.092709103146
 21
1101.2326627164275
  0
LINE
  8
_0-6_
  6
CONTINUOUS
 62
    7
 10
1443.2296340529983
 20
986.76817610457135
 11
1482.7336491765204
 21
1134.1993177259292
  0
LINE
  8
_0-6_
  6
CONTINUOUS
 62
    7
 10
1443.2296340529983
 20
1076.1927424250423
 11
1469.3354013803844
 21
1173.6206879486908
  0
LINE
  8
_0-6_
  6
CONTINUOUS
 62
    7
 10
1469.3354013803844
 20
1173.6206879486908
 11
1486.7792902766046
 21
1173.6206879486908
  0
LINE
  8
_0-6_
  6
CONTINUOUS
 62
    7
 10
1482.7336491765204
 20
1134.1993177259292
 11
1498.9580309068836
 21
1134.1993177259292
  0
LINE
  8
_0-2_
  6
CONTINUOUS
 62
    3
 10
1234.2780860694679
 20
865.18447463576865
 11
1237.6424016179267
 21
843.39003691802168
  0
LINE
  8
_0-6_
  6
CONTINUOUS
 62
    7
 10
1570.9609160552154
 20
740.64974398226354
 11
1570.9609160552154
 21
1101.2326627164275
  0
LINE
  8
_0-2_
  6
CONTINUOUS
 62
    7
 10
1443.2296340529983
 20
868.88759716137042
 11
1378.092709103146
 21
868.88759716137042
  0
LINE
  8
_0-2_
  6
CONTINUOUS
 62
    7
 10
1443.2296340529983
 20
740.64974398226354
 11
1378.092709103146
 21
740.64974398226354
  0
LINE
  8
_0-2_
  6
CONTINUOUS
 62
    7
 10
1443.2296340529983
 20
868.88759716137042
 11
1443.2296340529983
 21
740.64974398226354
  0
ARC
  8
_0-2_
  6
CONTINUOUS
 62
    3
 10
429.05873479069891
 20
713.64972913587417
 40
4.9999995811565503
 50
0
 51
90
  0
ARC
  8
_0-2_
  6
CONTINUOUS
 62
    3
 10
427.05867870433912
 20
711.64973490947
 40
4.9999995811565503
 50
0
 51
90
  0
ARC
  8
_0-2_
  6
CONTINUOUS
 62
    3
 10
391.05890634897605
 20
711.64973490947
 40
4.9999995811565503
 50
90
 51
180
  0
ARC
  8
_0-2_
  6
CONTINUOUS
 62
    3
 10
389.05885026261615
 20
713.64972913587417
 40
4.9999995811565503
 50
90
 51
180
  0
ARC
  8
_0-2_
  6
CONTINUOUS
 62
    3
 10
391.05890634897605
 20
625.64973573426948
 40
4.9999995811565503
 50
180
 51
270
  0
ARC
  8
_0-2_
  6
CONTINUOUS
 62
    3
 10
389.05885026261615
 20
623.64974150786531
 40
4.9999995811565503
 50
180
 51
270
  0
ARC
  8
_0-2_
  6
CONTINUOUS
 62
    3
 10
427.05867870433912
 20
625.64973573426948
 40
4.9999995811565503
 50
270
 51
0
  0
ARC
  8
_0-2_
  6
CONTINUOUS
 62
    3
 10
429.05873479069891
 20
623.64974150786531
 40
4.9999995811565503
 50
270
 51
0
  0
ARC
  8
_0-2_
  6
CONTINUOUS
 62
    3
 10
880.41278736011407
 20
713.64972913587417
 40
4.9999995811565503
 50
0
 51
90
  0
ARC
  8
_0-2_
  6
CONTINUOUS
 62
    3
 10
878.41273127375428
 20
711.64973490947
 40
4.9999995811565503
 50
0
 51
90
  0
ARC
  8
_0-2_
  6
CONTINUOUS
 62
    3
 10
842.41295891839115
 20
711.64973490947
 40
4.9999995811565503
 50
90
 51
180
  0
ARC
  8
_0-2_
  6
CONTINUOUS
 62
    3
 10
840.41290283203125
 20
713.64972913587417
 40
4.9999995811565503
 50
90
 51
180
  0
ARC
  8
_0-2_
  6
CONTINUOUS
 62
    3
 10
842.41295891839115
 20
625.64973573426948
 40
4.9999995811565503
 50
180
 51
270
  0
ARC
  8
_0-2_
  6
CONTINUOUS
 62
    3
 10
840.41290283203125
 20
623.64974150786531
 40
4.9999995811565503
 50
180
 51
270
  0
ARC
  8
_0-2_
  6
CONTINUOUS
 62
    3
 10
878.41273127375428
 20
625.64973573426948
 40
4.9999995811565503
 50
270
 51
0
  0
ARC
  8
_0-2_
  6
CONTINUOUS
 62
    3
 10
880.41278736011407
 20
623.64974150786531
 40
4.9999995811565503
 50
270
 51
0
  0
ARC
  8
_0-2_
  6
CONTINUOUS
 62
    3
 10
1330.4127873601142
 20
713.64972913587417
 40
4.9999995811565503
 50
0
 51
90
  0
ARC
  8
_0-2_
  6
CONTINUOUS
 62
    3
 10
1328.4127312737542
 20
711.64973490947
 40
4.9999995811565503
 50
0
 51
90
  0
ARC
  8
_0-2_
  6
CONTINUOUS
 62
    3
 10
1292.4129589183913
 20
711.64973490947
 40
4.9999995811565503
 50
90
 51
180
  0
ARC
  8
_0-2_
  6
CONTINUOUS
 62
    3
 10
1290.4129028320312
 20
713.64972913587417
 40
4.9999995811565503
 50
90
 51
180
  0
ARC
  8
_0-2_
  6
CONTINUOUS
 62
    3
 10
1292.4129589183913
 20
625.64973573426948
 40
4.9999995811565503
 50
180
 51
270
  0
ARC
  8
_0-2_
  6
CONTINUOUS
 62
    3
 10
1290.4129028320312
 20
623.64974150786531
 40
4.9999995811565503
 50
180
 51
270
  0
ARC
  8
_0-2_
  6
CONTINUOUS
 62
    3
 10
1328.4127312737542
 20
625.64973573426948
 40
4.9999995811565503
 50
270
 51
0
  0
ARC
  8
_0-2_
  6
CONTINUOUS
 62
    3
 10
1330.4127873601142
 20
623.64974150786531
 40
4.9999995811565503
 50
270
 51
0
  0
ARC
  8
_0-1_
  6
CONTINUOUS
 62
    7
 10
531.63967648068001
 20
769.27203616580459
 40
72.894480421736432
 50
13.791900634765625
 51
161.69851684570312
  0
ARC
  8
_0-1_
  6
CONTINUOUS
 62
    7
 10
531.63967648068001
 20
769.27203616580459
 40
57.894481194985879
 50
25.20538330078125
 51
167.5159912109375
  0
ARC
  8
_0-1_
  6
CONTINUOUS
 62
    7
 10
791.63966823268584
 20
769.27203616580459
 40
72.894480421736432
 50
13.791900634765625
 51
161.69851684570312
  0
ARC
  8
_0-1_
  6
CONTINUOUS
 62
    7
 10
655.51844416437928
 20
929.0261758340373
 40
167.37638421960781
 50
231.9831237792969
 51
298.39506530761719
  0
ARC
  8
_0-1_
  6
CONTINUOUS
 62
    7
 10
791.63966823268584
 20
769.27203616580459
 40
57.894481194985879
 50
25.20538330078125
 51
167.5159912109375
  0
ARC
  8
_0-1_
  6
CONTINUOUS
 62
    7
 10
654.7760009765625
 20
932.16210442620365
 40
155.49068966427365
 50
234.57966613769534
 51
295.79264831542969
  0
ARC
  8
_0-1_
  6
CONTINUOUS
 62
    7
 10
572.23712818042657
 20
812.72729409707563
 40
10.507658687797754
 50
201.07586669921878
 51
223.8392028808594
  0
ARC
  8
_0-1_
  6
CONTINUOUS
 62
    7
 10
1051.6396599846919
 20
769.27203616580459
 40
72.894480421736432
 50
13.791900634765625
 51
161.69851684570312
  0
ARC
  8
_0-1_
  6
CONTINUOUS
 62
    7
 10
915.51843591638522
 20
929.0261758340373
 40
167.37638421960781
 50
231.9831237792969
 51
298.39506530761719
  0
ARC
  8
_0-1_
  6
CONTINUOUS
 62
    7
 10
1051.6396599846919
 20
769.27203616580459
 40
57.894481194985879
 50
25.20538330078125
 51
167.5159912109375
  0
ARC
  8
_0-1_
  6
CONTINUOUS
 62
    7
 10
914.7758690086572
 20
932.16210442620365
 40
155.49068966427365
 50
234.57966613769534
 51
295.79264831542969
  0
ARC
  8
_0-1_
  6
CONTINUOUS
 62
    7
 10
832.23711993243239
 20
812.72729409707563
 40
10.507658687797754
 50
201.07586669921878
 51
223.8392028808594
  0
ARC
  8
_0-3_
  6
CONTINUOUS
 62
    7
 10
1182.4323911924621
 20
1091.1497373838683
 40
312.4998865900813
 50
249.39030456542969
 51
290.60969543457031
  0
ARC
  8
_0-3_
  6
CONTINUOUS
 62
    7
 10
1182.4323911924621
 20
1047.6498165646117
 40
285.99997855521542
 50
247.38014221191406
 51
292.61985778808594
  0
ARC
  8
_0-1_
  6
CONTINUOUS
 62
    7
 10
395.51845241237334
 20
929.0261758340373
 40
167.37638421960781
 50
253.73822021484375
 51
298.39506530761719
  0
ARC
  8
_0-1_
  6
CONTINUOUS
 62
    7
 10
394.77594736460105
 20
932.16210442620365
 40
155.49068966427365
 50
252.74311828613281
 51
295.79264831542969
  0
TEXT
  8
_1-0_
 62
    7
 10
717.5675778775601
 20
145.94594594594597
 40
12.5
 41
1
 50
0
  1
図名
  0
TEXT
  8
_1-0_
 62
    7
 10
717.5675778775601
 20
97.297297297297263
 40
12.5
 41
1
 50
0
  1
縮尺
  0
TEXT
  8
_1-0_
 62
    7
 10
1893.6189599939298
 20
138.65179113439609
 40
12.5
 41
1
 50
0
  1
ＮＯ
  0
TEXT
  8
_1-0_
 62
    7
 10
1927.7262301058386
 20
115.24704598091745
 40
12.5
 41
1
 50
0
  1
Ｓ
  0
TEXT
  8
_1-0_
 62
    7
 10
1983.5280753470756
 20
103.76186370849609
 40
12.5
 41
1
 50
0
  1
5
  0
TEXT
  8
_1-0_
 62
    7
 10
831.89503437763949
 20
94.965037784060939
 40
12.5
 41
1
 50
0
  1
1/5
  0
TEXT
  8
_1-0_
 62
    7
 10
206.71764837728972
 20
101.30050246779987
 40
12.5
 41
1
 50
0
  1
壁際
  0
TEXT
  8
_1-0_
 62
    7
 10
252.11834005407383
 20
101.30050246779987
 40
12.5
 41
1
 50
0
  1
1
  0
TEXT
  8
_0-6_
 62
    7
 10
1243.5036324165962
 20
566.17788366369302
 40
12.5
 41
1
 50
0
  1
120
  0
TEXT
  8
_1-0_
 62
    7
 10
553.93407667005386
 20
482.11673014872787
 40
12.5
 41
1
 50
0
  1
瓦桟
  0
TEXT
  8
_1-0_
 62
    7
 10
626.62425685573271
 20
728.06080998601146
 40
12.5
 41
1
 50
0
  1
ゴムアス系ルーフィング
  0
TEXT
  8
_0-6_
 62
    7
 10
618.84242908374688
 20
483.39441660288225
 40
12.5
 41
1
 50
0
  1
１５×２１以上　（防腐処理）
  0
TEXT
  8
_1-0_
 62
    7
 10
553.93406636006125
 20
386.3534669618349
 40
12.5
 41
1
 50
0
  1
野地板
  0
TEXT
  8
_1-0_
 62
    7
 10
624.97341052905938
 20
360.07916218525656
 40
12.5
 41
1
 50
0
  1
Ｃ－100ｘ50ｘ20ｘ2.3
  0
TEXT
  8
_1-0_
 62
    7
 10
624.97341052905938
 20
386.3534669618349
 40
12.5
 41
1
 50
0
  1
硬質木片セメント板　ｔ＝25
  0
TEXT
  8
_0-7_
 62
    7
 10
1194.271128886455
 20
1130.9744345175254
 40
12.5
 41
1
 50
0
  1
外壁
  0
TEXT
  8
_0-7_
 62
    7
 10
1440.7296258050042
 20
966.85768333641261
 40
12.5
 41
1
 50
90
  1
150
  0
TEXT
  8
_0-7_
 62
    7
 10
1088.6779166556694
 20
981.97613277950813
 40
12.5
 41
1
 50
0
  1
雨押え板　15ｘ90
  0
TEXT
  8
_0-7_
 62
    7
 10
1127.0270064070419
 20
1057.5788343274917
 40
12.5
 41
1
 50
0
  1
水切り鉄板
  0
TEXT
  8
_0-7_
 62
    7
 10
1081.4462403993348
 20
866.87387002481
 40
12.5
 41
1
 50
0
  1
半瓦
  0
TEXT
  8
_0-6_
 62
    7
 10
1440.7296258050042
 20
1069.9827039563979
 40
12.5
 41
1
 50
90
  1
50
  0
TEXT
  8
_0-6_
 62
    7
 10
1469.8385661357158
 20
1219.8944091796875
 40
15
 41
1
 50
0
  1
雨押え板上端より50mm以上とする
  0
TEXT
  8
_0-6_
 62
    7
 10
1490.8388911066827
 20
1167.6008482237121
 40
12.5
 41
1
 50
0
  1
水切鉄板上端より
  0
TEXT
  8
_0-6_
 62
    7
 10
1496.0583867253486
 20
1153.6822344805744
 40
12.5
 41
1
 50
0
  1
50ｍｍ以上
  0
TEXT
  8
_0-6_
 62
    7
 10
1502.4376946526604
 20
1128.1648790514148
 40
12.5
 41
1
 50
0
  1
水切り鉄板立上がり寸法
  0
TEXT
  8
_0-6_
 62
    7
 10
1568.4609078072212
 20
892.81620334934541
 40
12.5
 41
1
 50
90
  1
300　以上
  0
TEXT
  8
_0-2_
 62
    7
 10
1440.7296258050042
 20
795.39370150179479
 40
12.5
 41
1
 50
90
  1
130
  0
TEXT
  8
_0-6_
 62
    7
 10
621.75701244457355
 20
460.79728410050677
 40
12.5
 41
1
 50
0
  1
※　地域により瓦桟木の大きさは、異なります
  0
POINT
  8
_0-6_
 62
    7
 10
1194.5604066591004
 20
563.67787541569896
  0
POINT
  8
_0-6_
 62
    7
 10
1311.1969818940033
 20
563.67787541569896
  0
POINT
  8
_0-6_
 62
    7
 10
1570.9609160552154
 20
740.64974398226354
  0
POINT
  8
_0-7_
 62
    7
 10
1443.2296340529983
 20
901.23274519636823
  0
POINT
  8
_0-7_
 62
    7
 10
1443.2296340529983
 20
1051.2327451963683
  0
POINT
  8
_0-6_
 62
    7
 10
1443.2296340529983
 20
1051.2327451963683
  0
POINT
  8
_0-6_
 62
    7
 10
1443.2296340529983
 20
1101.2326627164275
  0
POINT
  8
_0-6_
 62
    7
 10
1570.9609160552154
 20
1101.2326627164275
  0
POINT
  8
_0-2_
 62
    7
 10
1443.2296340529983
 20
868.88759716137042
  0
POINT
  8
_0-2_
 62
    7
 10
1443.2296340529983
 20
740.64974398226354
  0
TEXT
  8
_0-7_
 62
    7
 10
999.33444259567386
 20
483.93094841930116
 40
12.5
 41
1
 50
0
  1
捨谷
  0
TEXT
  8
_1-0_
 62
    7
 10
81.081079792332105
 20
145.94594594594597
 40
12.5
 41
1
 50
0
  1
Ｓ形
  0
TEXT
  8
_1-0_
 62
    7
 10
135.88908169720625
 20
125.3822120460304
 40
12.5
 41
1
 50
0
  1
鉄骨
  0
TEXT
  8
_1-0_
 62
    7
 10
553.93406636006125
 20
438.90210744496937
 40
12.5
 41
1
 50
0
  1
縦桟
  0
TEXT
  8
_1-0_
 62
    7
 10
553.93405605006865
 20
414.9125073407148
 40
12.5
 41
1
 50
0
  1
ルーフィング
  0
TEXT
  8
_1-0_
 62
    7
 10
553.93407667005386
 20
360.07916218525656
 40
12.5
 41
1
 50
0
  1
たる木
  0
TEXT
  8
_0-6_
 62
    7
 10
1122.2683216956621
 20
935.71550116256935
 40
12.5
 41
1
 50
0
  1
葺き土
  0
TEXT
  8
_0-6_
 62
    7
 10
1467.9054507693729
 20
1248.1298910604942
 40
15
 41
1
 50
0
  1
ルーフィング立上げ長さは、300ｍｍ以上かつ
  0
TEXT
  8
_0-6_
 62
    7
 10
1578.8258114376583
 20
869.97404356260563
 40
12.5
 41
1
 50
0
  1
ルーフィング立上がり寸法
  0
ARC
  8
_0-8_
  6
CONTINUOUS
 62
    3
 10
1142.9643900353594
 20
811.13775070818872
 40
127.93392080932091
 50
350.9279249597127
 51
20.658796013860833
  0
LINE
  8
ADD_LINE
  6
DOT
 62
    7
 10
1292.4323829444679
 20
793.84854436270734
 11
1311.1969818940033
 21
793.84854436270734
  0
LINE
  8
ADD_LINE
  6
DOT
 62
    7
 10
1311.1969818940033
 20
868.88759716137042
 11
1311.1969818940033
 21
874.02468595207415
  0
ARC
  8
_0-8_
  6
CONTINUOUS
 62
    1
 10
1142.9643900353594
 20
811.13775070818872
 40
127.93392080932091
 50
350.9279249597127
 51
20.658796013860833
  0
SOLID
  8
ADD_LINE
  6
DOT
 62
    8
 10
1269.2979563811884
 20
790.96553942658613
 11
1279.7439832101286
 21
794.08438240082216
 12
1287.2908004298092
 22
797.15027689631756
 13
1287.2908004298092
 23
797.15027689631756
  0
SOLID
  8
ADD_LINE
  6
DOT
 62
    8
 10
1287.2908004298092
 20
797.15027689631756
 11
1292.4323640197663
 21
798.64984832952018
 12
1311.1969818940033
 22
874.02468595207415
 13
1311.1969818940033
 23
874.02468595207415
  0
SOLID
  8
ADD_LINE
  6
DOT
 62
    8
 10
1287.2908004298092
 20
797.15027689631756
 11
1311.1969818940033
 21
874.02468595207415
 12
1262.7636444658472
 22
856.58146250130267
 13
1262.7636444658472
 23
856.58146250130267
  0
SOLID
  8
ADD_LINE
  6
DOT
 62
    8
 10
1287.2908004298092
 20
797.15027689631756
 11
1262.7636444658472
 21
856.58146250130267
 12
1262.6719024182362
 22
856.27309797337512
 13
1262.6719024182362
 23
856.27309797337512
  0
SOLID
  8
ADD_LINE
  6
DOT
 62
    8
 10
1287.2908004298092
 20
797.15027689631756
 11
1262.6719024182362
 21
856.27309797337512
 12
1274.6523381620618
 22
824.49870723411414
 13
1274.6523381620618
 23
824.49870723411414
  0
SOLID
  8
ADD_LINE
  6
DOT
 62
    8
 10
1287.2908004298092
 20
797.15027689631756
 11
1274.6523381620618
 21
824.49870723411414
 12
1269.2979563811884
 22
790.96553942658613
 13
1269.2979563811884
 23
790.96553942658613
  0
SOLID
  8
ADD_LINE
  6
DOT
 62
    8
 10
1311.1969818940033
 20
874.02468595207415
 11
1292.4323829444679
 21
798.64982398780626
 12
1311.1969818940033
 22
793.84854436270734
 13
1292.4323829444679
 23
793.84854436270734
  0
ENDSEC
  0
EOF
