  0
SECTION
  2
HEADER
  9
$ACADVER
  1
AC1009
  9
$INSBASE
 10
0
 20
0
 30
0
  9
$EXTMIN
 10
0
 20
0
  9
$EXTMAX
 10
420
 20
297
  9
$LIMMIN
 10
0
 20
0
  9
$LIMMAX
 10
420
 20
297
  9
$LTSCALE
 40
1
  0
ENDSEC
  0
SECTION
  2
TABLES
  0
TABLE
  2
LTYPE
 70
     9
  0
LTYPE
  2
CONTINUOUS
 70
    64
  3
実線
 72
    65
 73
     0
 40
0.0
  0
LTYPE
  2
DASHED1
 70
    64
  3
--  --  --  --  --  --  --  --  
 72
    65
 73
     2
 40
2.5
 49
1.25
 49
-1.25
  0
LTYPE
  2
DASHED2
 70
    64
  3
----    ----    ----    ----    
 72
    65
 73
     2
 40
5.0
 49
2.5
 49
-2.5
  0
LTYPE
  2
DASHED3
 70
    64
  3
------  ------  ------  ------  
 72
    65
 73
     2
 40
5.0
 49
3.75
 49
-1.25
  0
LTYPE
  2
CENTER1
 70
    64
  3
----- - ----- - ----- - ----- - 
 72
    65
 73
     4
 40
10.0
 49
6.25
 49
-1.25
 49
1.25
 49
-1.25
  0
LTYPE
  2
CENTER2
 70
    64
  3
----------  --  ----------  --  
 72
    65
 73
     4
 40
20.0
 49
12.5
 49
-2.5
 49
2.5
 49
-2.5
  0
LTYPE
  2
PHANTOM1
 70
    64
  3
--- - - --- - - --- - - --- - - 
 72
    65
 73
     6
 40
10.0
 49
3.25
 49
-1.25
 49
1.25
 49
-1.25
 49
1.25
 49
-1.25
  0
LTYPE
  2
PHANTOM2
 70
    64
  3
--------  -  -  --------  -  -  
 72
    65
 73
     6
 40
20.0
 49
10.0
 49
-2.5
 49
1.25
 49
-2.5
 49
1.25
 49
-2.5
  0
LTYPE
  2
DOT
 70
    64
  3
-   -   -   -   -   -   -   -   
 72
    65
 73
     2
 40
2.5
 49
0.625
 49
-1.875
  0
LTYPE
  2
DUMMY
 70
    64
  3
ダミー
 72
    65
 73
     0
 40
0.0
  0
LTYPE
  2
RAND1
 70
    64
  3
ランダム線1
 72
    65
 73
     4
 40
10.0
 49
1.0
 49
-2.0
 49
3.0
 49
-4.0
  0
LTYPE
  2
RAND2
 70
    64
  3
ランダム線2
 72
    65
 73
     4
 40
14.0
 49
2.0
 49
-3.0
 49
4.0
 49
-5.0
  0
LTYPE
  2
RAND3
 70
    64
  3
ランダム線3
 72
    65
 73
     4
 40
18.0
 49
3.0
 49
-4.0
 49
5.0
 49
-6.0
  0
LTYPE
  2
RAND4
 70
    64
  3
ランダム線4
 72
    65
 73
     4
 40
22.0
 49
4.0
 49
-5.0
 49
6.0
 49
-7.0
  0
LTYPE
  2
RAND5
 70
    64
  3
ランダム線5
 72
    65
 73
     4
 40
26.0
 49
5.0
 49
-6.0
 49
7.0
 49
-8.0
  0
LTYPE
  2
LONG1
 70
    64
  3
----------  --  ----------  --  
 72
    65
 73
     4
 40
40.0
 49
32.5
 49
-2.5
 49
2.5
 49
-2.5
  0
LTYPE
  2
LONG2
 70
    64
  3
--------  -  -  --------  -  -  
 72
    65
 73
     6
 40
40.0
 49
30.0
 49
-2.5
 49
1.25
 49
-2.5
 49
1.25
 49
-2.5
  0
LTYPE
  2
LONG3
 70
    64
  3
+++++++++++++++..+++++++++++++++
 72
    65
 73
     2
 40
40.0
 49
37.5
 49
-2.5
  0
LTYPE
  2
LONG4
 70
    64
  3
+++++++++++++++..+++++++++++++++
 72
    65
 73
     2
 40
80.0
 49
75.0
 49
-5.0
  0
LTYPE
  2
LONG5
 70
    64
  3
----------  --  ----------  --  
 72
    65
 73
     4
 40
60.0
 49
37.5
 49
-7.5
 49
7.5
 49
-7.5
  0
LTYPE
  2
dashed
 70
   64
  3
-------   -------------   ------
 72
   65
 73
    2
 40
7.5
 49
6
 49
-1.5
  0
LTYPE
  2
dashed_spaced
 70
   64
  3
----        --------        ----
 72
   65
 73
    2
 40
12
 49
6
 49
-6
  0
LTYPE
  2
long_dashed_dotted
 70
   64
  3
------------- --- --------------
 72
   65
 73
    4
 40
15.25
 49
12
 49
-1.5
 49
0.25
 49
-1.5
  0
LTYPE
  2
long_dashed_double-dotted
 70
   64
  3
----------- --- --- ------------
 72
   65
 73
    6
 40
17
 49
12
 49
-1.5
 49
0.25
 49
-1.5
 49
0.25
 49
-1.5
  0
LTYPE
  2
long_dashed_triplicate-dotted
 70
   64
  3
--------- --- --- --- ----------
 72
   65
 73
    8
 40
18.75
 49
12
 49
-1.5
 49
0.25
 49
-1.5
 49
0.25
 49
-1.5
 49
0.25
 49
-1.5
  0
LTYPE
  2
dotted
 70
   64
  3
   -       -       -       -    
 72
   65
 73
    2
 40
1.75
 49
0.25
 49
-1.5
  0
LTYPE
  2
chain
 70
   64
  3
-------------- -- --------------
 72
   65
 73
    4
 40
18.5
 49
12
 49
-1.5
 49
3.5
 49
-1.5
  0
LTYPE
  2
chain_double_dash
 70
   64
  3
------------ -- -- -------------
 72
   65
 73
    6
 40
23.5
 49
12
 49
-1.5
 49
3.5
 49
-1.5
 49
3.5
 49
-1.5
  0
LTYPE
  2
dashed_dotted
 70
   64
  3
-----------     -     ----------
 72
   65
 73
    4
 40
9.25
 49
6
 49
-1.5
 49
0.25
 49
-1.5
  0
LTYPE
  2
double-dashed_dotted
 70
   64
  3
------   -----------   -   -----
 72
   65
 73
    6
 40
16.75
 49
6
 49
-1.5
 49
6
 49
-1.5
 49
0.25
 49
-1.5
  0
LTYPE
  2
dashed_double-dotted
 70
   64
  3
---------    -    -    ---------
 72
   65
 73
    6
 40
11
 49
6
 49
-1.5
 49
0.25
 49
-1.5
 49
0.25
 49
-1.5
  0
LTYPE
  2
double-dashed_double-dotted
 70
   64
  3
-----   ---------   -   -   ----
 72
   65
 73
    8
 40
18.5
 49
6
 49
-1.5
 49
6
 49
-1.5
 49
0.25
 49
-1.5
 49
0.25
 49
-1.5
  0
LTYPE
  2
dashed_triplicate-dotted
 70
   64
  3
-------    -    -    -    ------
 72
   65
 73
    8
 40
12.75
 49
6
 49
-1.5
 49
0.25
 49
-1.5
 49
0.25
 49
-1.5
 49
0.25
 49
-1.5
  0
LTYPE
  2
double-dashed_triplicate-dotted
 70
   64
  3
-----  ---------  -  -  -  -----
 72
   65
 73
   10
 40
20.25
 49
6
 49
-1.5
 49
6
 49
-1.5
 49
0.25
 49
-1.5
 49
0.25
 49
-1.5
 49
0.25
 49
-1.5
  0
LTYPE
  2
undefined
 70
   64
  3
--------------------------------
 72
   65
 73
    0
 40
0
  0
ENDTAB
  0
TABLE
  2
STYLE
  5
3
100
AcDbSymbolTable
 70
     1
  0
STYLE
  5
10
100
AcDbSymbolTableRecord
100
AcDbTextStyleTableRecord
  2
STANDARD
 70
     0
 40
0.0
 41
1.0
 50
0.0
 71
     0
 42
0.2
  3
txt
  4
bigfont.shx
  0
STYLE
  5
26
100
AcDbSymbolTableRecord
100
AcDbTextStyleTableRecord
  2
TATEGAKI
 70
    68
 40
0.0
 41
1.0
 50
0.0
 71
     0
 42
1.0
  3
txt
  4
bigfont.shx
  0
ENDTAB
  0
TABLE
  2
LAYER
 70
    9
  0
LAYER
  2
_0-0_
 70
   64
 62
    7
  6
CONTINUOUS
  0
LAYER
  2
_1-0_
 70
   64
 62
    7
  6
CONTINUOUS
  0
LAYER
  2
_1-1_
 70
   64
 62
    7
  6
CONTINUOUS
  0
LAYER
  2
_1-2_
 70
   64
 62
    7
  6
CONTINUOUS
  0
LAYER
  2
_1-3_
 70
   64
 62
    7
  6
CONTINUOUS
  0
LAYER
  2
_1-4_
 70
   64
 62
    7
  6
CONTINUOUS
  0
LAYER
  2
_1-5_
 70
   64
 62
    7
  6
CONTINUOUS
  0
LAYER
  2
_1-f_
 70
   64
 62
    7
  6
CONTINUOUS
  0
LAYER
  2
ADD_LINE
 70
   64
 62
    7
  6
CONTINUOUS
  0
ENDTAB
  0
ENDSEC
  0
SECTION
  2
BLOCKS
  0
ENDSEC
  0
SECTION
  2
ENTITIES
  0
LINE
  8
_1-4_
  6
CONTINUOUS
 62
    7
 10
276.48648648648651
 20
185.6174778293919
 11
276.48648648648651
 21
215.6174778293919
  0
LINE
  8
_0-0_
  6
CONTINUOUS
 62
    5
 10
6.7567526327597136
 20
280.13513513513516
 11
406.75677325274495
 21
280.13513513513516
  0
LINE
  8
_0-0_
  6
CONTINUOUS
 62
    5
 10
406.75677325274495
 20
10.13513513513513
 11
6.7567526327597136
 21
10.13513513513513
  0
LINE
  8
_0-0_
  6
CONTINUOUS
 62
    5
 10
406.75677325274495
 20
30.135133073136615
 11
6.7567402607685949
 21
30.135133073136615
  0
LINE
  8
_0-0_
  6
CONTINUOUS
 62
    5
 10
371.75678150073907
 20
10.13513513513513
 11
371.75678150073907
 21
30.135133073136615
  0
LINE
  8
_0-0_
  6
CONTINUOUS
 62
    5
 10
137.02703939901818
 20
30.135133073136615
 11
137.02703939901818
 21
10.13513513513513
  0
LINE
  8
_0-0_
  6
CONTINUOUS
 62
    5
 10
214.86486486486487
 20
30.135133073136615
 11
214.86486486486487
 21
10.13513513513513
  0
LINE
  8
_0-0_
  6
CONTINUOUS
 62
    5
 10
137.02703939901818
 20
20.135134104135886
 11
214.86486486486487
 21
20.135134104135886
  0
LINE
  8
_0-0_
  6
CONTINUOUS
 62
    5
 10
396.48648648648651
 20
25.945945945945951
 11
383.91891891891896
 21
13.378379924877265
  0
LINE
  8
_1-3_
  6
CONTINUOUS
 62
    7
 10
126.16404765361065
 20
115.4826272500528
 11
116.01767875052788
 21
143.35950696790542
  0
LINE
  8
_1-3_
  6
CONTINUOUS
 62
    7
 10
116.01767875052788
 20
143.35950696790542
 11
114.74380905563767
 21
143.35950696790542
  0
LINE
  8
_1-3_
  6
CONTINUOUS
 62
    7
 10
178.29647579708615
 20
64.86486486486487
 11
163.84839032147383
 21
64.86486486486487
  0
LINE
  8
_1-3_
  6
CONTINUOUS
 62
    7
 10
178.29647579708615
 20
58.465440079972552
 11
166.17759085990289
 21
58.465440079972552
  0
LINE
  8
_1-3_
  6
CONTINUOUS
 62
    7
 10
178.29647579708615
 20
52.523123251425261
 11
168.34041286159206
 21
52.523123251425261
  0
LINE
  8
_1-3_
  6
CONTINUOUS
 62
    7
 10
178.29647579708615
 20
46.352258630701016
 11
170.5864241316512
 21
46.352258630701016
  0
LINE
  8
_1-3_
  6
CONTINUOUS
 62
    7
 10
148.02462603594807
 20
108.34028914168076
 11
172.68731194573482
 21
40.580130912162161
  0
LINE
  8
_1-3_
  6
CONTINUOUS
 62
    7
 10
172.68731194573482
 20
40.580130912162161
 11
178.29647579708615
 21
40.580130912162161
  0
LINE
  8
_1-1_
  6
CONTINUOUS
 62
    7
 10
234.0616174646326
 20
175.17252329233531
 11
233.08071651974242
 21
178.0076145481419
  0
LINE
  8
_1-1_
  6
CONTINUOUS
 62
    7
 10
233.08071651974242
 20
178.0076145481419
 11
250.09131354254646
 21
183.89313156540331
  0
LINE
  8
_1-1_
  6
CONTINUOUS
 62
    7
 10
250.09131354254646
 20
183.89313156540331
 11
251.07223923141893
 21
181.05802793760557
  0
LINE
  8
_1-1_
  6
CONTINUOUS
 62
    7
 10
251.07223923141893
 20
181.05802793760557
 11
234.0616174646326
 21
175.17252329233531
  0
LINE
  8
_1-1_
  6
CONTINUOUS
 62
    7
 10
233.08071651974242
 20
178.0076145481419
 11
251.07223923141893
 21
181.05802793760557
  0
LINE
  8
_1-1_
  6
CONTINUOUS
 62
    3
 10
232.00950003959039
 20
178.26662218248524
 11
252.56049078864021
 21
185.37709004170188
  0
LINE
  8
_1-1_
  6
CONTINUOUS
 62
    3
 10
253.25527706661742
 20
185.6174778293919
 11
253.25527706661742
 21
215.6174778293919
  0
LINE
  8
_1-1_
  6
CONTINUOUS
 62
    7
 10
249.25528861380914
 20
189.18011639569258
 11
249.25528861380914
 21
261.33685962573901
  0
LINE
  8
_1-1_
  6
CONTINUOUS
 62
    7
 10
246.85529554212417
 20
189.18011639569258
 11
246.85529554212417
 21
261.33685962573901
  0
LINE
  8
_1-1_
  6
CONTINUOUS
 62
    7
 10
249.25528861380914
 20
188.25553275443414
 11
249.25528861380914
 21
196.25553440403294
  0
LINE
  8
_1-1_
  6
CONTINUOUS
 62
    7
 10
249.25528861380914
 20
196.25553440403294
 11
253.25527706661742
 21
196.25553440403294
  0
LINE
  8
_1-1_
  6
CONTINUOUS
 62
    7
 10
253.25527706661742
 20
196.25553440403294
 11
253.25527706661742
 21
188.25553275443414
  0
LINE
  8
_1-1_
  6
CONTINUOUS
 62
    7
 10
253.25527706661742
 20
188.25553275443414
 11
249.25528861380914
 21
188.25553275443414
  0
LINE
  8
_1-1_
  6
CONTINUOUS
 62
    7
 10
249.25528861380914
 20
196.25553440403294
 11
253.25527706661742
 21
188.25553275443414
  0
LINE
  8
_1-1_
  6
CONTINUOUS
 62
    7
 10
243.4772470835093
 20
184.24450848553633
 11
224.97122274862755
 21
235.08938351192992
  0
LINE
  8
_1-1_
  6
CONTINUOUS
 62
    7
 10
247.64012517155828
 20
218.10266443201016
 11
231.83488175675677
 21
261.52719033731
  0
LINE
  8
_1-1_
  6
CONTINUOUS
 62
    7
 10
214.89208324535474
 20
196.73317986565669
 11
225.71091935441302
 21
167.0086669921875
  0
LINE
  8
_1-1_
  6
CONTINUOUS
 62
    7
 10
231.83488175675677
 20
261.52719033731
 11
224.59459459459461
 21
261.52719033731
  0
LINE
  8
_1-1_
  6
CONTINUOUS
 62
    7
 10
224.97122274862755
 20
235.08938351192992
 11
220.54054054054055
 21
235.08938351192992
  0
LINE
  8
_1-1_
  6
CONTINUOUS
 62
    7
 10
214.89208324535474
 20
196.73317986565669
 11
210.81081081081084
 21
196.73317986565669
  0
LINE
  8
_1-1_
  6
CONTINUOUS
 62
    7
 10
250.98870354729732
 20
146.90259778821792
 11
254.19552364864867
 21
150.10943026156039
  0
LINE
  8
_1-1_
  6
CONTINUOUS
 62
    7
 10
246.87462059227198
 20
145.05125303526182
 11
254.05228073532518
 21
152.22892555030617
  0
LINE
  8
_1-1_
  6
CONTINUOUS
 62
    7
 10
242.76053763724664
 20
143.19993302628802
 11
249.93819778029984
 21
150.37759316934122
  0
LINE
  8
_1-1_
  6
CONTINUOUS
 62
    7
 10
238.6464546822213
 20
141.34858827333193
 11
245.82413956925677
 21
148.52626078837628
  0
LINE
  8
_1-1_
  6
CONTINUOUS
 62
    7
 10
234.53237172719597
 20
139.49725589236698
 11
241.71003187024917
 21
146.67491603542018
  0
LINE
  8
_1-1_
  6
CONTINUOUS
 62
    7
 10
230.41833826013516
 20
137.64592351140203
 11
237.59597365920609
 21
144.82358365445523
  0
LINE
  8
_1-1_
  6
CONTINUOUS
 62
    7
 10
226.30423056112755
 20
135.79459113043708
 11
233.48189070418076
 21
142.97225127349029
  0
LINE
  8
_1-1_
  6
CONTINUOUS
 62
    7
 10
222.19017235008448
 20
133.94325874947214
 11
229.36783249313768
 21
141.12093126451649
  0
LINE
  8
_1-1_
  6
CONTINUOUS
 62
    7
 10
218.07603990709461
 20
132.09191399651604
 11
225.25370005014781
 21
139.26956176757813
  0
LINE
  8
_1-1_
  6
CONTINUOUS
 62
    7
 10
213.96198169605154
 20
130.24056924355997
 11
221.13964183910474
 21
137.41824175860432
  0
LINE
  8
_1-1_
  6
CONTINUOUS
 62
    7
 10
209.8478987410262
 20
128.38924923458615
 11
217.0255588840794
 21
135.56689700564823
  0
LINE
  8
_1-1_
  6
CONTINUOUS
 62
    7
 10
205.73385290197425
 20
126.53791685362121
 11
212.91150067303633
 21
133.71557699667443
  0
LINE
  8
_1-1_
  6
CONTINUOUS
 62
    7
 10
201.61976994694891
 20
124.68658447265625
 11
208.79741771801099
 21
131.86423224371833
  0
LINE
  8
_1-1_
  6
CONTINUOUS
 62
    7
 10
197.50568699192357
 20
122.8352520916913
 11
204.68333476298565
 21
130.01289986275339
  0
LINE
  8
_1-1_
  6
CONTINUOUS
 62
    7
 10
193.39160403689823
 20
120.98391971072635
 11
200.56927655194258
 21
128.16156748178844
  0
LINE
  8
_1-1_
  6
CONTINUOUS
 62
    7
 10
189.27753345386404
 20
119.13257495777027
 11
196.45519359691724
 21
126.31023510082349
  0
LINE
  8
_1-1_
  6
CONTINUOUS
 62
    7
 10
185.16346287082982
 20
117.28125494879646
 11
192.3411106418919
 21
124.45890271985854
  0
LINE
  8
_1-1_
  6
CONTINUOUS
 62
    7
 10
181.04940465978675
 20
115.42992256783151
 11
188.22704005885771
 21
122.60757033889359
  0
LINE
  8
_1-1_
  6
CONTINUOUS
 62
    7
 10
176.93533407675255
 20
113.57859018686656
 11
184.11296947582349
 21
120.75623795792863
  0
LINE
  8
_1-1_
  6
CONTINUOUS
 62
    7
 10
172.82125112172722
 20
111.72724543391048
 11
179.99891126478042
 21
118.90490557696369
  0
LINE
  8
_1-1_
  6
CONTINUOUS
 62
    7
 10
168.70719291068414
 20
109.87592542493667
 11
175.88485305373734
 21
117.05358556798987
  0
LINE
  8
_1-1_
  6
CONTINUOUS
 62
    7
 10
164.59313469964107
 20
108.02460541596284
 11
171.77077009871201
 21
115.20225318702492
  0
LINE
  8
_1-1_
  6
CONTINUOUS
 62
    7
 10
160.47906411660685
 20
106.17327303499789
 11
167.65671188766893
 21
113.35092080605997
  0
LINE
  8
_1-1_
  6
CONTINUOUS
 62
    7
 10
156.36498116158151
 20
104.32194065403294
 11
163.54262893264359
 21
111.49957605310389
  0
LINE
  8
_1-1_
  6
CONTINUOUS
 62
    7
 10
152.25089820655617
 20
102.47059590107686
 11
159.42854597761826
 21
109.64824367213895
  0
LINE
  8
_1-1_
  6
CONTINUOUS
 62
    7
 10
148.13682762352198
 20
100.61926970610747
 11
155.31446302259292
 21
107.796911291174
  0
LINE
  8
_1-1_
  6
CONTINUOUS
 62
    7
 10
144.02276941247888
 20
98.7679435111381
 11
151.20040481154984
 21
105.94557891020904
  0
LINE
  8
_1-1_
  6
CONTINUOUS
 62
    7
 10
139.90869882944469
 20
96.916611130173152
 11
147.08633422851563
 21
104.09424652924409
  0
LINE
  8
_1-1_
  6
CONTINUOUS
 62
    7
 10
135.79461587441935
 20
95.065272563212631
 11
142.97223890149917
 21
102.24290796228358
  0
LINE
  8
_1-1_
  6
CONTINUOUS
 62
    7
 10
131.68053291939401
 20
93.213933996252123
 11
138.85818069045609
 21
100.39158176731419
  0
LINE
  8
_1-1_
  6
CONTINUOUS
 62
    7
 10
127.56646233635981
 20
91.362607801282735
 11
134.74411010742187
 21
98.540249386349245
  0
LINE
  8
_1-1_
  6
CONTINUOUS
 62
    7
 10
123.45237938133447
 20
89.511269234322214
 11
130.63002715239654
 21
96.688910819388724
  0
LINE
  8
_1-1_
  6
CONTINUOUS
 62
    7
 10
119.33832117029139
 20
87.659943039352839
 11
126.51595656936234
 21
94.83758462441935
  0
LINE
  8
_1-1_
  6
CONTINUOUS
 62
    7
 10
115.22423821526606
 20
85.808610658387892
 11
122.40188598632812
 21
92.986252243454402
  0
LINE
  8
_1-1_
  6
CONTINUOUS
 62
    7
 10
111.11016763223185
 20
83.95727209142737
 11
118.2878030313028
 21
91.134913676493881
  0
LINE
  8
_1-1_
  6
CONTINUOUS
 62
    7
 10
106.99609704919764
 20
82.105939710462422
 11
114.17373244826858
 21
89.283581295528933
  0
LINE
  8
_1-1_
  6
CONTINUOUS
 62
    7
 10
102.88202646616344
 20
80.254607329497475
 11
110.05967423722551
 21
87.432255100559544
  0
LINE
  8
_1-1_
  6
CONTINUOUS
 62
    7
 10
98.7679435111381
 20
78.403274948532527
 11
105.94559128220017
 21
85.580916533599037
  0
LINE
  8
_1-1_
  6
CONTINUOUS
 62
    7
 10
94.65386674210832
 20
76.551942567567565
 11
101.83149595518371
 21
83.729571780642956
  0
LINE
  8
_1-1_
  6
CONTINUOUS
 62
    7
 10
90.539796159074115
 20
74.700610186602617
 11
97.717437744140625
 21
81.878251771669142
  0
LINE
  8
_1-1_
  6
CONTINUOUS
 62
    7
 10
86.425725576039909
 20
72.849277805637669
 11
93.603354789115286
 21
80.02691320470862
  0
LINE
  8
_1-1_
  6
CONTINUOUS
 62
    7
 10
82.311636435019011
 20
70.997939238677162
 11
89.489259462098829
 21
78.17556845175254
  0
LINE
  8
_1-1_
  6
CONTINUOUS
 62
    7
 10
79.973107415276615
 20
73.893300649282097
 11
82.69567541173987
 21
71.170757396801108
  0
LINE
  8
_1-1_
  6
CONTINUOUS
 62
    7
 10
81.53362377269849
 20
74.595534865920612
 11
84.256179397170612
 21
71.87298542744405
  0
LINE
  8
_1-1_
  6
CONTINUOUS
 62
    7
 10
83.094140130120365
 20
75.297762896563555
 11
85.816683382601354
 21
72.575207272091433
  0
LINE
  8
_1-1_
  6
CONTINUOUS
 62
    7
 10
84.654644115551108
 20
75.999990927206511
 11
87.37719355402767
 21
73.277435302734375
  0
LINE
  8
_1-1_
  6
CONTINUOUS
 62
    7
 10
86.21514810098185
 20
76.702218957849453
 11
88.937697539458412
 21
73.979669519372891
  0
LINE
  8
_1-1_
  6
CONTINUOUS
 62
    7
 10
87.775652086412592
 20
77.40444698849241
 11
90.498207710884714
 21
74.681897550015847
  0
LINE
  8
_1-1_
  6
CONTINUOUS
 62
    7
 10
89.336156071843334
 20
78.106675019135352
 11
92.058711696315456
 21
75.38412558065879
  0
LINE
  8
_1-1_
  6
CONTINUOUS
 62
    7
 10
90.896672429265209
 20
78.808903049778294
 11
93.619221867741771
 21
76.086347425306172
  0
LINE
  8
_1-1_
  6
CONTINUOUS
 62
    7
 10
92.457176414695951
 20
79.511131080421251
 11
95.179725853172513
 21
76.788575455949115
  0
LINE
  8
_1-1_
  6
CONTINUOUS
 62
    7
 10
94.017692772117826
 20
80.213359111064193
 11
96.740236024598829
 21
77.490803486592071
  0
LINE
  8
_1-1_
  6
CONTINUOUS
 62
    7
 10
95.578184385557435
 20
80.915587141707135
 11
98.300740010029571
 21
78.193031517235013
  0
LINE
  8
_1-1_
  6
CONTINUOUS
 62
    7
 10
97.138688370988177
 20
81.617808986354518
 11
99.861250181455873
 21
78.895259547877956
  0
LINE
  8
_1-1_
  6
CONTINUOUS
 62
    7
 10
98.699204728410052
 20
82.320043202993034
 11
101.42175416688661
 21
79.597487578520912
  0
LINE
  8
_1-1_
  6
CONTINUOUS
 62
    7
 10
100.25970871384079
 20
83.02227123363599
 11
102.98226433831293
 21
80.299721795159428
  0
LINE
  8
_1-1_
  6
CONTINUOUS
 62
    7
 10
101.82022507126267
 20
83.724499264278933
 11
104.54276832374367
 21
81.001943639806797
  0
LINE
  8
_1-1_
  6
CONTINUOUS
 62
    7
 10
103.38071668470229
 20
84.426721108926316
 11
106.10328468116555
 21
81.704177856445313
  0
LINE
  8
_1-1_
  6
CONTINUOUS
 62
    7
 10
104.94123304212417
 20
85.128955325564831
 11
107.66378866659629
 21
82.406405887088269
  0
LINE
  8
_1-1_
  6
CONTINUOUS
 62
    7
 10
106.50173702755491
 20
85.831183356207774
 11
109.22429265202703
 21
83.108633917731211
  0
LINE
  8
_1-1_
  6
CONTINUOUS
 62
    7
 10
108.06224101298565
 20
86.533411386850716
 11
110.78479663745777
 21
83.810861948374153
  0
LINE
  8
_1-1_
  6
CONTINUOUS
 62
    7
 10
109.62274499841639
 20
87.235639417493672
 11
112.34530062288852
 21
84.513083793021536
  0
LINE
  8
_1-1_
  6
CONTINUOUS
 62
    7
 10
111.18326135583827
 20
87.937873634132188
 11
113.90581698031039
 21
85.215318009660052
  0
LINE
  8
_1-1_
  6
CONTINUOUS
 62
    7
 10
112.74376534126901
 20
88.640095478779571
 11
115.46632096574113
 21
85.917539854307435
  0
LINE
  8
_1-1_
  6
CONTINUOUS
 62
    7
 10
114.30428169869089
 20
89.342329695418073
 11
117.02682495117187
 21
86.619767884950392
  0
LINE
  8
_1-1_
  6
CONTINUOUS
 62
    7
 10
115.8647733121305
 20
90.044551540065456
 11
118.58734130859375
 21
87.321995915593334
  0
LINE
  8
_1-1_
  6
CONTINUOUS
 62
    7
 10
117.42528966955237
 20
90.746779570708412
 11
120.14784529402451
 21
88.02423013223185
  0
LINE
  8
_1-1_
  6
CONTINUOUS
 62
    7
 10
118.98579365498311
 20
91.449007601351354
 11
121.70834927945525
 21
88.726451976879233
  0
LINE
  8
_1-1_
  6
CONTINUOUS
 62
    7
 10
120.54631001240499
 20
92.151235631994311
 11
123.26885326488599
 21
89.428680007522175
  0
LINE
  8
_1-1_
  6
CONTINUOUS
 62
    7
 10
122.10682636982686
 20
92.853469848632812
 11
124.82935725031673
 21
90.130908038165117
  0
LINE
  8
_1-1_
  6
CONTINUOUS
 62
    7
 10
123.66730561127534
 20
93.555685507284636
 11
126.38986123574747
 21
90.833136068808074
  0
LINE
  8
_1-1_
  6
CONTINUOUS
 62
    7
 10
125.22782196869721
 20
94.257919723923152
 11
127.95036522117822
 21
91.535364099451016
  0
LINE
  8
_1-1_
  6
CONTINUOUS
 62
    7
 10
126.78832595412797
 20
94.960147754566094
 11
129.51088157860008
 21
92.237592130093972
  0
LINE
  8
_1-1_
  6
CONTINUOUS
 62
    7
 10
128.3488299395587
 20
95.662375785209036
 11
131.07139793602195
 21
92.939820160736915
  0
LINE
  8
_1-1_
  6
CONTINUOUS
 62
    7
 10
129.90934629698057
 20
96.364610001847552
 11
132.63190192145271
 21
93.64205437737543
  0
LINE
  8
_1-1_
  6
CONTINUOUS
 62
    7
 10
131.46986265440245
 20
97.066838032490509
 11
134.19240590688347
 21
94.344276222022813
  0
LINE
  8
_1-1_
  6
CONTINUOUS
 62
    7
 10
133.0303666398332
 20
97.769066063133451
 11
135.75290989231419
 21
95.046504252665756
  0
LINE
  8
_1-1_
  6
CONTINUOUS
 62
    7
 10
134.59087062526393
 20
98.471294093776393
 11
137.31342624973607
 21
95.748738469304271
  0
LINE
  8
_1-1_
  6
CONTINUOUS
 62
    7
 10
136.15136223870354
 20
99.173515938423776
 11
138.87391786317568
 21
96.450966499947214
  0
LINE
  8
_1-1_
  6
CONTINUOUS
 62
    7
 10
137.71187859612542
 20
99.875750155062292
 11
140.4344465925887
 21
97.153188344594597
  0
LINE
  8
_1-1_
  6
CONTINUOUS
 62
    7
 10
139.27238258155617
 20
100.57797818570525
 11
141.99493820602831
 21
97.855416375237553
  0
LINE
  8
_1-1_
  6
CONTINUOUS
 62
    7
 10
140.83289893897805
 20
101.28020003035262
 11
143.55545456345018
 21
98.557650591876055
  0
LINE
  8
_1-1_
  6
CONTINUOUS
 62
    7
 10
142.3934029244088
 20
101.98243424699113
 11
145.11595854888091
 21
99.259878622519011
  0
LINE
  8
_1-1_
  6
CONTINUOUS
 62
    7
 10
143.95390690983953
 20
102.68465609163852
 11
146.67646253431167
 21
99.962100467166394
  0
LINE
  8
_1-1_
  6
CONTINUOUS
 62
    7
 10
145.51441089527029
 20
103.38689030827703
 11
148.2369665197424
 21
100.66432849780934
  0
LINE
  8
_1-1_
  6
CONTINUOUS
 62
    7
 10
147.07491488070102
 20
104.08911215292441
 11
149.79747050517315
 21
101.36655652845229
  0
LINE
  8
_1-1_
  6
CONTINUOUS
 62
    7
 10
148.63541886613177
 20
104.7913339975718
 11
151.35797449060388
 21
102.06878455909523
  0
LINE
  8
_1-1_
  6
CONTINUOUS
 62
    7
 10
150.19594759554477
 20
105.49356821421031
 11
152.91849084802575
 21
102.77101258973818
  0
LINE
  8
_1-1_
  6
CONTINUOUS
 62
    7
 10
151.75645158097552
 20
106.19580243084883
 11
154.47900720544763
 21
103.47324680637669
  0
LINE
  8
_1-1_
  6
CONTINUOUS
 62
    7
 10
153.31695556640625
 20
106.89803664748733
 11
156.03951119087839
 21
104.17546865102408
  0
LINE
  8
_1-1_
  6
CONTINUOUS
 62
    7
 10
154.87745955183701
 20
107.60025849213471
 11
157.60001517630914
 21
104.87769049567146
  0
LINE
  8
_1-1_
  6
CONTINUOUS
 62
    7
 10
156.43796353726773
 20
108.3024803367821
 11
159.16051916173987
 21
105.57992471230997
  0
LINE
  8
_1-1_
  6
CONTINUOUS
 62
    7
 10
157.99846752269849
 20
109.00471455342061
 11
160.72102314717063
 21
106.28215892894849
  0
LINE
  8
_1-1_
  6
CONTINUOUS
 62
    7
 10
159.55897150812922
 20
109.706936398068
 11
162.28152713260135
 21
106.98438077359587
  0
LINE
  8
_1-1_
  6
CONTINUOUS
 62
    7
 10
161.11948786555109
 20
110.40917061470651
 11
163.84203111803211
 21
107.68661499023437
  0
LINE
  8
_1-1_
  6
CONTINUOUS
 62
    7
 10
162.67999185098185
 20
111.11139245935389
 11
165.40254747545399
 21
108.38883683488176
  0
LINE
  8
_1-1_
  6
CONTINUOUS
 62
    7
 10
164.24049583641261
 20
111.81362667599241
 11
166.96305146088471
 21
109.09107105152027
  0
LINE
  8
_1-1_
  6
CONTINUOUS
 62
    7
 10
165.80101219383448
 20
112.51584852063979
 11
168.52356781830659
 21
109.79330526815879
  0
LINE
  8
_1-1_
  6
CONTINUOUS
 62
    7
 10
167.36151617926521
 20
113.21808273727829
 11
170.08407180373734
 21
110.49552711280617
  0
LINE
  8
_1-1_
  6
CONTINUOUS
 62
    7
 10
168.92200779270482
 20
113.92030458192568
 11
171.64457578916807
 21
111.19774895745356
  0
LINE
  8
_1-1_
  6
CONTINUOUS
 62
    7
 10
170.48252415012669
 20
114.62253879856419
 11
173.20507977459883
 21
111.89998317409207
  0
LINE
  8
_1-1_
  6
CONTINUOUS
 62
    7
 10
172.04304050754857
 20
115.32477301520271
 11
174.7655961320207
 21
112.60220501873945
  0
LINE
  8
_1-1_
  6
CONTINUOUS
 62
    7
 10
173.60353212098818
 20
116.02699485985009
 11
176.32610011745143
 21
113.30443923537796
  0
LINE
  8
_1-1_
  6
CONTINUOUS
 62
    7
 10
175.16404847841005
 20
116.72921670449747
 11
177.88660410288219
 21
114.00666108002534
  0
LINE
  8
_1-1_
  6
CONTINUOUS
 62
    7
 10
176.72456483583193
 20
117.43145092113599
 11
179.44712046030406
 21
114.70889529666385
  0
LINE
  8
_1-1_
  6
CONTINUOUS
 62
    7
 10
178.28506882126268
 20
118.13368513777451
 11
181.00762444573482
 21
115.41112951330237
  0
LINE
  8
_1-1_
  6
CONTINUOUS
 62
    7
 10
179.84557280669341
 20
118.83590698242187
 11
182.56814080315669
 21
116.11335135794975
  0
LINE
  8
_1-1_
  6
CONTINUOUS
 62
    7
 10
181.40608916411529
 20
119.53814119906039
 11
184.12865716057857
 21
116.81558557458827
  0
LINE
  8
_1-1_
  6
CONTINUOUS
 62
    7
 10
182.96660552153716
 20
120.24036304370777
 11
185.6891611460093
 21
117.51780741923565
  0
LINE
  8
_1-1_
  6
CONTINUOUS
 62
    7
 10
184.52709713497677
 20
120.94259726034629
 11
187.24965275944891
 21
118.22002926388303
  0
LINE
  8
_1-1_
  6
CONTINUOUS
 62
    7
 10
186.08761349239865
 20
121.64481910499367
 11
188.81016911687078
 21
118.92226348052155
  0
LINE
  8
_1-1_
  6
CONTINUOUS
 62
    7
 10
187.6481174778294
 20
122.34705332163219
 11
190.37066073031039
 21
119.62448532516892
  0
LINE
  8
_1-1_
  6
CONTINUOUS
 62
    7
 10
189.20862146326016
 20
123.04927516627957
 11
191.93117708773227
 21
120.32671954180744
  0
LINE
  8
_1-1_
  6
CONTINUOUS
 62
    7
 10
190.76912544869089
 20
123.75150938291809
 11
193.49168107316302
 21
121.02894138645482
  0
LINE
  8
_1-1_
  6
CONTINUOUS
 62
    7
 10
192.32962943412164
 20
124.45373122756547
 11
195.0521974305849
 21
121.73117560309333
  0
LINE
  8
_1-1_
  6
CONTINUOUS
 62
    7
 10
193.89013341955237
 20
125.15596544420397
 11
196.61270141601562
 21
122.43339744774072
  0
LINE
  8
_1-1_
  6
CONTINUOUS
 62
    7
 10
195.45063740498313
 20
125.85818728885135
 11
198.17320540144638
 21
123.13563166437923
  0
LINE
  8
_1-1_
  6
CONTINUOUS
 62
    7
 10
197.01116613439612
 20
126.56042150548987
 11
199.73370938687711
 21
123.83786588101775
  0
LINE
  8
_1-1_
  6
CONTINUOUS
 62
    7
 10
198.57167011982688
 20
127.26265572212839
 11
201.29422574429898
 21
124.54008772566513
  0
LINE
  8
_1-1_
  6
CONTINUOUS
 62
    7
 10
200.1321741052576
 20
127.96487756677577
 11
202.85474210172086
 21
125.24232194230363
  0
LINE
  8
_1-1_
  6
CONTINUOUS
 62
    7
 10
201.69267809068836
 20
128.66711178341427
 11
204.41525845914273
 21
125.94454378695102
  0
LINE
  8
_1-1_
  6
CONTINUOUS
 62
    7
 10
203.25319444811024
 20
129.36933362806167
 11
205.97575007258237
 21
126.64677800358953
  0
LINE
  8
_1-1_
  6
CONTINUOUS
 62
    7
 10
204.81369843354096
 20
130.07156784470018
 11
207.53626643000425
 21
127.34901222022805
  0
LINE
  8
_1-1_
  6
CONTINUOUS
 62
    7
 10
206.37420241897172
 20
130.77378968934755
 11
209.09674567145271
 21
128.0512216928843
  0
LINE
  8
_1-1_
  6
CONTINUOUS
 62
    7
 10
207.93471877639359
 20
131.47602390598607
 11
210.65724965688347
 21
128.75345590952281
  0
LINE
  8
_1-1_
  6
CONTINUOUS
 62
    7
 10
209.49519801784209
 20
132.17824575063347
 11
212.21777838629646
 21
129.45569012616133
  0
LINE
  8
_1-1_
  6
CONTINUOUS
 62
    7
 10
211.05570200327281
 20
132.88046759528083
 11
213.77828237172722
 21
130.1579119708087
  0
LINE
  8
_1-1_
  6
CONTINUOUS
 62
    7
 10
212.61623073268584
 20
133.58270181191935
 11
215.33878635715794
 21
130.86013381545609
  0
LINE
  8
_1-1_
  6
CONTINUOUS
 62
    7
 10
214.17673471811656
 20
134.28492365656672
 11
216.8992903425887
 21
131.56236803209461
  0
LINE
  8
_1-1_
  6
CONTINUOUS
 62
    7
 10
215.73723870354732
 20
134.98715787320523
 11
218.45979432801943
 21
132.26460224873313
  0
LINE
  8
_1-1_
  6
CONTINUOUS
 62
    7
 10
217.29774268897805
 20
135.68939208984375
 11
220.02032305743245
 21
132.9668240933805
  0
LINE
  8
_1-1_
  6
CONTINUOUS
 62
    7
 10
218.8582466744088
 20
136.39161393449115
 11
221.58082704286318
 21
133.66904593802789
  0
LINE
  8
_1-1_
  6
CONTINUOUS
 62
    7
 10
220.41875065983953
 20
137.09383577913852
 11
223.14133102829393
 21
134.37128015466638
  0
LINE
  8
_1-1_
  6
CONTINUOUS
 62
    7
 10
221.97925464527029
 20
137.79606999577703
 11
224.70183501372466
 21
135.07350199931378
  0
LINE
  8
_1-1_
  6
CONTINUOUS
 62
    7
 10
223.53978337468328
 20
138.49830421241555
 11
226.26233899915542
 21
135.77573621595229
  0
LINE
  8
_1-1_
  6
CONTINUOUS
 62
    7
 10
225.10028736011404
 20
139.20052605706292
 11
227.82284298458617
 21
136.47797043259081
  0
LINE
  8
_1-1_
  6
CONTINUOUS
 62
    7
 10
226.66079134554477
 20
139.90276027370143
 11
229.3833469700169
 21
137.18019227723818
  0
LINE
  8
_1-1_
  6
CONTINUOUS
 62
    7
 10
228.22129533097552
 20
140.60498211834883
 11
230.94385095544766
 21
137.88242649387669
  0
LINE
  8
_1-1_
  6
CONTINUOUS
 62
    7
 10
229.78182406038852
 20
141.30721633498734
 11
232.50437968486065
 21
138.58466071051521
  0
LINE
  8
_1-1_
  6
CONTINUOUS
 62
    7
 10
231.34232804581927
 20
142.00943817963471
 11
234.06488367029141
 21
139.28688255516261
  0
LINE
  8
_1-1_
  6
CONTINUOUS
 62
    7
 10
232.90283203125
 20
142.71167239627323
 11
235.62538765572214
 21
139.98910439980997
  0
LINE
  8
_1-1_
  6
CONTINUOUS
 62
    7
 10
234.46331127269849
 20
143.41389424092063
 11
237.18586689717063
 21
140.69133861644849
  0
LINE
  8
_1-1_
  6
CONTINUOUS
 62
    7
 10
236.02384000211151
 20
144.116116085568
 11
238.74637088260135
 21
141.39356046109586
  0
LINE
  8
_1-1_
  6
CONTINUOUS
 62
    7
 10
237.58434398754224
 20
144.81835030220651
 11
240.30689961201438
 21
142.09578230574326
  0
LINE
  8
_1-1_
  6
CONTINUOUS
 62
    7
 10
239.144847972973
 20
145.52057214685388
 11
241.86742834142737
 21
142.79801652238177
  0
LINE
  8
_1-1_
  6
CONTINUOUS
 62
    7
 10
240.70535195840372
 20
146.2228063634924
 11
243.42793232685813
 21
143.50025073902029
  0
LINE
  8
_1-1_
  6
CONTINUOUS
 62
    7
 10
242.26585594383448
 20
146.92504058013091
 11
244.98841156830659
 21
144.20246021167654
  0
LINE
  8
_1-1_
  6
CONTINUOUS
 62
    7
 10
243.82635992926521
 20
147.62726242477831
 11
246.54894029771961
 21
144.90469442831505
  0
LINE
  8
_1-1_
  6
CONTINUOUS
 62
    7
 10
245.38686391469597
 20
148.32948426942568
 11
248.10944428315034
 21
145.60692864495357
  0
LINE
  8
_1-1_
  6
CONTINUOUS
 62
    7
 10
246.94736790012669
 20
149.03171848606419
 11
249.66994826858109
 21
146.30916286159206
  0
LINE
  8
_1-1_
  6
CONTINUOUS
 62
    7
 10
248.50789662953972
 20
149.73395270270271
 11
251.23045225401185
 21
147.01138470623945
  0
LINE
  8
_1-1_
  6
CONTINUOUS
 62
    7
 10
250.06840061497044
 20
150.43617454735011
 11
252.79095623944258
 21
147.71360655088682
  0
LINE
  8
_1-1_
  6
CONTINUOUS
 62
    7
 10
251.6289046004012
 20
151.13840876398859
 11
254.19552364864867
 21
148.57178971574115
  0
LINE
  8
_1-1_
  6
CONTINUOUS
 62
    7
 10
253.18940858583193
 20
151.84063060863599
 11
254.19552364864867
 21
150.83452791781039
  0
LINE
  8
_1-1_
  6
CONTINUOUS
 62
    3
 10
228.88445879961995
 20
172.36238634264149
 11
229.72919361011404
 21
167.02887045370568
  0
LINE
  8
_1-4_
  6
CONTINUOUS
 62
    3
 10
248.56889054581927
 20
179.12496618322425
 11
249.13206358213685
 21
175.56929304793076
  0
LINE
  8
_1-4_
  6
CONTINUOUS
 62
    3
 10
233.48206391205659
 20
174.6520707413957
 11
233.59892974028716
 21
175.98918605495143
  0
LINE
  8
_1-1_
  6
CONTINUOUS
 62
    3
 10
232.00950003959039
 20
178.26662218248524
 11
233.48206391205659
 21
174.65209548537797
  0
LINE
  8
_1-4_
  6
CONTINUOUS
 62
    7
 10
243.4772470835093
 20
184.24450848553633
 11
244.64696935705237
 21
181.03071058118667
  0
LINE
  8
_1-1_
  6
CONTINUOUS
 62
    7
 10
216.57051705025339
 20
216.26685889991555
 11
213.24324324324326
 21
216.26685889991555
  0
LINE
  8
_1-4_
  6
CONTINUOUS
 62
    7
 10
230.95585178684544
 20
176.74345686629013
 11
216.57051705025339
 21
216.26685889991555
  0
LINE
  8
_1-4_
  6
CONTINUOUS
 62
    7
 10
230.95585178684544
 20
176.74345686629013
 11
232.60800748258026
 21
176.74345686629013
  0
LINE
  8
_1-4_
  6
CONTINUOUS
 62
    7
 10
229.47668127111487
 20
171.73276334195523
 11
217.20272579708617
 21
205.45518617372255
  0
LINE
  8
_1-4_
  6
CONTINUOUS
 62
    7
 10
217.20272579708617
 20
205.45518617372255
 11
214.60094555004224
 21
205.45518617372255
  0
LINE
  8
_1-4_
  6
CONTINUOUS
 62
    7
 10
225.71091935441302
 20
167.0086669921875
 11
227.93817468591641
 21
160.88933171452703
  0
LINE
  8
_1-4_
  6
CONTINUOUS
 62
    7
 10
227.93817468591641
 20
160.88933171452703
 11
240.93445649018159
 21
162.77810174065669
  0
LINE
  8
_1-4_
  6
CONTINUOUS
 62
    7
 10
246.85529554212417
 20
189.18011639569258
 11
246.85529554212417
 21
185.75785044077281
  0
LINE
  8
_1-4_
  6
CONTINUOUS
 62
    7
 10
246.85529554212417
 20
185.75785044077281
 11
249.25528861380914
 21
185.75785044077281
  0
LINE
  8
_1-4_
  6
CONTINUOUS
 62
    7
 10
249.25528861380914
 20
188.25553275443414
 11
249.25528861380914
 21
185.75785044077281
  0
LINE
  8
_1-4_
  6
CONTINUOUS
 62
    7
 10
263.64683408994932
 20
185.6174778293919
 11
276.48648648648651
 21
185.6174778293919
  0
LINE
  8
_1-4_
  6
CONTINUOUS
 62
    7
 10
263.64683408994932
 20
215.6174778293919
 11
276.48648648648651
 21
215.6174778293919
  0
ARC
  8
_1-1_
  6
CONTINUOUS
 62
    3
 10
255.64161146009292
 20
134.46958799619932
 40
41.612016832506335
 50
99
 51
128.5146484375
  0
ARC
  8
_1-1_
  6
CONTINUOUS
 62
    3
 10
257.98125395903719
 20
119.6977151406778
 40
60.168024011560391
 50
99
 51
118.9202880859375
  0
TEXT
  8
_0-0_
 62
    7
 10
141.89189395389042
 20
14.594594594594582
 40
2.5
 41
1
 50
0
  1
縮尺
  0
TEXT
  8
_0-0_
 62
    7
 10
377.10214563318203
 20
22.865493362014362
 40
2.5
 41
1
 50
0
  1
ＮＯ
  0
TEXT
  8
_1-0_
 62
    7
 10
169.90681828679266
 20
13.3181144095756
 40
2.5
 41
1
 50
0
  1
1/5
  0
TEXT
  8
_0-0_
 62
    7
 10
383.97877873601146
 20
17.689098667454061
 40
2.5
 41
1
 50
0
  1
Ｓ
  0
TEXT
  8
_1-3_
 62
    7
 10
181.71292691617398
 20
45.513870651657527
 40
2.5
 41
1
 50
0
  1
野地板
  0
TEXT
  8
_1-3_
 62
    7
 10
181.7129289781725
 20
63.513868177259297
 40
2.5
 41
1
 50
0
  1
瓦桟
  0
TEXT
  8
_0-0_
 62
    7
 10
39.721903414339636
 20
15.395235628695104
 40
2.5
 41
1
 50
0
  1
壁際　3
  0
TEXT
  8
_1-1_
 62
    7
 10
218.29586132152662
 20
260.45528102565459
 40
2.5
 41
1
 50
0
  1
外壁
  0
TEXT
  8
_1-1_
 62
    7
 10
199.48938936800573
 20
233.75476734058279
 40
2.5
 41
1
 50
0
  1
雨押え板　15ｘ90
  0
TEXT
  8
_1-1_
 62
    7
 10
195.54235303724136
 20
215.18049910261826
 40
2.5
 41
1
 50
0
  1
水切り鉄板
  0
TEXT
  8
_1-1_
 62
    7
 10
395.69760296795823
 20
15.701242910849089
 40
2.5
 41
1
 50
0
  1
29
  0
TEXT
  8
_1-1_
 62
    7
 10
25.556194717819636
 20
20.211577544341225
 40
2.5
 41
1
 50
0
  1
鉄骨
  0
TEXT
  8
_1-1_
 62
    7
 10
196.14609589447849
 20
39.513875600453972
 40
2.5
 41
1
 50
0
  1
Ｃ－100ｘ50ｘ20ｘ2.3
  0
TEXT
  8
_1-4_
 62
    7
 10
205.99399875950169
 20
204.46400410420188
 40
2.5
 41
1
 50
0
  1
のし瓦
  0
TEXT
  8
_1-4_
 62
    7
 10
275.98648483688771
 20
198.7424778293919
 40
2.5
 41
1
 50
90
  1
150
  0
TEXT
  8
_1-4_
 62
    7
 10
196.14609589447849
 20
45.513870651657527
 40
2.5
 41
1
 50
0
  1
硬質木片セメント板　ｔ＝18
  0
POINT
  8
_1-4_
 62
    7
 10
276.48648648648651
 20
185.6174778293919
  0
POINT
  8
_1-4_
 62
    7
 10
276.48648648648651
 20
215.6174778293919
  0
POINT
  8
_1-f_
 62
    7
 10
276.48648648648651
 20
215.6174778293919
  0
POINT
  8
_1-f_
 62
    7
 10
276.48648648648651
 20
225.6174778293919
  0
LINE
  8
_1-f_
  6
CONTINUOUS
 62
    7
 10
276.48648648648651
 20
215.6174778293919
 11
263.64683408994932
 21
215.6174778293919
  0
LINE
  8
_1-f_
  6
CONTINUOUS
 62
    7
 10
276.48648648648651
 20
225.6174778293919
 11
263.64683408994932
 21
225.6174778293919
  0
LINE
  8
_1-f_
  6
CONTINUOUS
 62
    7
 10
276.48648648648651
 20
215.6174778293919
 11
276.48648648648651
 21
225.6174778293919
  0
TEXT
  8
_1-f_
 62
    7
 10
275.98648648648651
 20
219.3674778293919
 40
2.5
 41
1
 50
90
  1
50
  0
POINT
  8
_1-f_
 62
    7
 10
293.00253590041234
 20
152.63441755964951
  0
POINT
  8
_1-f_
 62
    7
 10
293.00253590041234
 20
225.6174778293919
  0
LINE
  8
_1-f_
  6
CONTINUOUS
 62
    7
 10
293.00253590041234
 20
152.63441755964951
 11
263.64683408994932
 21
152.63441755964951
  0
LINE
  8
_1-f_
  6
CONTINUOUS
 62
    7
 10
293.00253590041234
 20
225.6174778293919
 11
263.64683408994932
 21
225.6174778293919
  0
LINE
  8
_1-f_
  6
CONTINUOUS
 62
    7
 10
293.00253590041234
 20
152.63441755964951
 11
293.00253590041234
 21
225.6174778293919
  0
TEXT
  8
_1-f_
 62
    7
 10
292.50253590041234
 20
184.1259476945207
 40
2.5
 41
1
 50
90
  1
300 以上
  0
TEXT
  8
_1-f_
 62
    7
 10
282.0875119336535
 20
255.66164212133162
 40
3
 41
1
 50
0
  1
雨押え板上端より50mm以上とする
  0
LINE
  8
_1-f_
  6
CONTINUOUS
 62
    7
 10
276.45185090849691
 20
219.46491980919211
 11
283.43608305569109
 21
245.53042903437648
  0
LINE
  8
_1-f_
  6
CONTINUOUS
 62
    7
 10
284.71035020260143
 20
232.41469179745178
 11
286.98234501011905
 21
232.41469179745178
  0
LINE
  8
_1-f_
  6
CONTINUOUS
 62
    7
 10
283.43608305569109
 20
245.53042903437648
 11
285.2774078698564
 21
245.53042903437648
  0
TEXT
  8
_1-f_
 62
    7
 10
286.98234501011905
 20
240.72648885246718
 40
2.5
 41
1
 50
0
  1
50ｍｍ以上
  0
TEXT
  8
_1-4_
 62
    7
 10
287.88495879025805
 20
231.19889895099959
 40
2.5
 41
1
 50
0
  1
水切り鉄板立上がり寸法
  0
LINE
  8
_1-f_
  6
CONTINUOUS
 62
    7
 10
276.48648648648651
 20
201.72281457438865
 11
284.71035020260143
 21
232.41469179745178
  0
TEXT
  8
_1-f_
 62
    7
 10
286.58118333005723
 20
244.44682738973592
 40
2.5
 41
1
 50
0
  1
水切鉄板上端より
  0
LINE
  8
_1-1_
  6
CONTINUOUS
 62
    7
 10
254.19552364864867
 20
125.43442184860642
 11
254.19552364864867
 21
261.33685962573901
  0
TEXT
  8
_1-3_
 62
    7
 10
221.44822411898085
 20
63.349654347579317
 40
2.5
 41
1
 50
0
  1
※　地域により瓦桟木の大きさは、異なります
  0
LINE
  8
_1-0_
  6
CONTINUOUS
 62
    7
 10
103.5561991784503
 20
86.260218640496163
 11
102.07888446138949
 21
89.543138859298949
  0
LINE
  8
_1-0_
  6
CONTINUOUS
 62
    7
 10
102.07888446138949
 20
89.543138859298949
 11
106.45610729579616
 21
91.512883567385941
  0
LINE
  8
_1-0_
  6
CONTINUOUS
 62
    7
 10
106.45610729579616
 20
91.512883567385941
 11
107.93342201285697
 21
88.229963348583155
  0
LINE
  8
_1-0_
  6
CONTINUOUS
 62
    7
 10
107.93342201285697
 20
88.229963348583155
 11
103.5561991784503
 21
86.260218640496163
  0
LINE
  8
_1-0_
  6
CONTINUOUS
 62
    7
 10
102.07888446138949
 20
89.543138859298949
 11
107.93342201285697
 21
88.229963348583155
  0
LINE
  8
_1-0_
  6
CONTINUOUS
 62
    7
 10
153.87601927320327
 20
112.85184643161736
 11
155.35333399026408
 21
109.56892621281457
  0
LINE
  8
_1-0_
  6
CONTINUOUS
 62
    7
 10
155.35333399026408
 20
109.56892621281457
 11
150.97609878386626
 21
107.59918150472758
  0
LINE
  8
_1-0_
  6
CONTINUOUS
 62
    7
 10
201.29593125061035
 20
134.19080929584879
 11
202.77324596767116
 21
130.90788907704601
  0
LINE
  8
_1-0_
  6
CONTINUOUS
 62
    7
 10
202.77324596767116
 20
130.90788907704601
 11
198.39601076127337
 21
128.938144368959
  0
LINE
  8
_1-2_
  6
CONTINUOUS
 62
    3
 10
107.55466587634936
 20
89.271672629885941
 11
109.37421461209684
 21
89.883492335333585
  0
LINE
  8
ADD_LINE
  6
DOT
 62
    7
 10
105.89439415443212
 20
94.515936974797256
 11
105.72170590221506
 21
95.090863402690005
  0
LINE
  8
_1-2_
  6
CONTINUOUS
 62
    3
 10
105.72170590221506
 20
95.090863402690005
 11
105.89439415443212
 21
94.515936974797256
  0
LINE
  8
_1-2_
  6
CONTINUOUS
 62
    3
 10
106.75790964746423
 20
91.641230603386788
 11
107.55723925050478
 21
89.264014367375381
  0
LINE
  8
_1-2_
  6
CONTINUOUS
 62
    3
 10
105.72170590221506
 20
95.090863402690005
 11
107.61840637466017
 21
95.728639545532062
  0
LINE
  8
_1-2_
  6
CONTINUOUS
 62
    3
 10
109.37421461209684
 20
89.883492335333585
 11
107.61840637466017
 21
95.728639545532062
  0
LINE
  8
_1-0_
  6
CONTINUOUS
 62
    7
 10
153.87601927320327
 20
112.85183405962623
 11
155.35333399026408
 21
109.56891384082344
  0
LINE
  8
_1-0_
  6
CONTINUOUS
 62
    7
 10
155.35333399026408
 20
109.56891384082344
 11
150.97609878386626
 21
107.59916913273645
  0
LINE
  8
_1-2_
  6
CONTINUOUS
 62
    3
 10
154.96549681226577
 20
110.60729505651179
 11
156.77965135987978
 21
111.23496328259921
  0
LINE
  8
ADD_LINE
  6
DOT
 62
    7
 10
153.25954769909009
 20
115.83687384794972
 11
153.08181167449126
 21
116.41026614894211
  0
LINE
  8
_1-2_
  6
CONTINUOUS
 62
    3
 10
153.08181167449126
 20
116.41026614894211
 11
153.25954769909009
 21
115.83687384794972
  0
LINE
  8
_1-2_
  6
CONTINUOUS
 62
    3
 10
154.14810410217285
 20
112.96980099506753
 11
154.96814441836796
 21
110.59964916599236
  0
LINE
  8
_1-2_
  6
CONTINUOUS
 62
    3
 10
98.504579107451548
 20
92.868952771355538
 11
99.260965529273761
 21
93.130669871756723
  0
LINE
  8
_1-2_
  6
CONTINUOUS
 62
    3
 10
100.4232646081378
 20
94.381540035132986
 11
154.14810410217285
 21
112.96980099506753
  0
LINE
  8
_1-2_
  6
CONTINUOUS
 62
    3
 10
99.398480210703241
 20
92.687035013754183
 11
99.260965529273761
 21
93.130669871756723
  0
LINE
  8
_1-2_
  6
CONTINUOUS
 62
    3
 10
98.645929106131888
 20
92.412859318283324
 11
98.504579107451548
 21
92.868952771355538
  0
LINE
  8
_1-2_
  6
CONTINUOUS
 62
    3
 10
100.12767299601785
 20
92.720798177552751
 11
99.654926842882304
 21
92.557215710808663
  0
LINE
  8
_1-2_
  6
CONTINUOUS
 62
    3
 10
100.25331056596085
 20
92.969005063638051
 11
100.04632715432655
 21
93.636894632894808
  0
LINE
  8
_1-2_
  6
CONTINUOUS
 62
    3
 10
98.047508267079934
 20
92.001069965453937
 11
98.520279164197746
 21
92.164652432198025
  0
LINE
  8
_1-2_
  6
CONTINUOUS
 62
    3
 10
153.25954769909009
 20
115.83687384794972
 11
96.52744832065892
 21
96.208116061843299
  0
LINE
  8
_1-2_
  6
CONTINUOUS
 62
    3
 10
97.791074006892018
 20
92.130876896408324
 11
96.52744832065892
 21
96.208116061843299
  0
LINE
  8
_1-2_
  6
CONTINUOUS
 62
    3
 10
156.77965135987978
 20
111.23496328259921
 11
154.97289526296254
 21
117.0645712719362
  0
LINE
  8
_1-2_
  6
CONTINUOUS
 62
    7
 10
96.52744832065892
 20
96.208116061843299
 11
91.819039655646236
 21
109.81658873129008
  0
LINE
  8
_1-0_
  6
CONTINUOUS
 62
    7
 10
150.97609878386626
 20
107.59918150472758
 11
149.51593164651408
 21
110.84403310681796
  0
LINE
  8
_1-0_
  6
CONTINUOUS
 62
    7
 10
150.97609878386626
 20
107.59916913273645
 11
149.51590690253181
 21
110.84402073482683
  0
LINE
  8
_1-0_
  6
CONTINUOUS
 62
    7
 10
149.51593164651408
 20
110.84403310681796
 11
155.35333399026408
 21
109.56892621281457
  0
LINE
  8
_1-2_
  6
CONTINUOUS
 62
    7
 10
107.61840637466017
 20
95.728639545532062
 11
107.27434130128603
 21
96.751939304030799
  0
LINE
  8
_1-0_
  6
CONTINUOUS
 62
    7
 10
105.72170590221506
 20
95.090863402690005
 11
105.4158950254203
 21
96.108942180931138
  0
LINE
  8
_1-0_
  6
CONTINUOUS
 62
    7
 10
201.29593125061035
 20
134.19080929584879
 11
202.77324596767116
 21
130.90788907704601
  0
LINE
  8
_1-0_
  6
CONTINUOUS
 62
    7
 10
202.77324596767116
 20
130.90788907704601
 11
198.39601076127337
 21
128.938144368959
  0
LINE
  8
_1-0_
  6
CONTINUOUS
 62
    7
 10
201.29593125061035
 20
134.19079692385765
 11
202.77324596767116
 21
130.90787670505486
  0
LINE
  8
_1-0_
  6
CONTINUOUS
 62
    7
 10
202.77324596767116
 20
130.90787670505486
 11
198.39601076127337
 21
128.93813199696785
  0
LINE
  8
_1-2_
  6
CONTINUOUS
 62
    3
 10
202.38540878967285
 20
131.94625792074322
 11
204.19956333728689
 21
132.57392614683062
  0
LINE
  8
_1-2_
  6
CONTINUOUS
 62
    3
 10
200.50172365189837
 20
137.74922901317353
 11
200.67945967649717
 21
137.17583671218114
  0
LINE
  8
_1-2_
  6
CONTINUOUS
 62
    3
 10
201.56801607957996
 20
134.30876385929895
 11
202.38805639577504
 21
131.93861203022379
  0
LINE
  8
_1-2_
  6
CONTINUOUS
 62
    3
 10
145.92449108485866
 20
114.20791563558696
 11
146.68088987867202
 21
114.46963273598814
  0
LINE
  8
_1-2_
  6
CONTINUOUS
 62
    3
 10
147.84316421355376
 20
115.7205028993644
 11
201.56801607957996
 21
134.30876385929895
  0
LINE
  8
_1-2_
  6
CONTINUOUS
 62
    3
 10
146.81839218811035
 20
114.0259978779856
 11
146.68088987867202
 21
114.46963273598814
  0
LINE
  8
_1-2_
  6
CONTINUOUS
 62
    3
 10
146.06585345553012
 20
113.75182218251474
 11
145.92449108485866
 21
114.20791563558696
  0
LINE
  8
_1-2_
  6
CONTINUOUS
 62
    3
 10
147.54757260143384
 20
114.05976104178417
 11
147.07483882028941
 21
113.89617857504008
  0
LINE
  8
_1-2_
  6
CONTINUOUS
 62
    3
 10
147.67322254336796
 20
114.30796792786947
 11
147.46623913173366
 21
114.97585749712623
  0
LINE
  8
_1-2_
  6
CONTINUOUS
 62
    3
 10
145.46742024448704
 20
113.34003282968536
 11
145.940203513596
 21
113.50361529642944
  0
LINE
  8
_1-2_
  6
CONTINUOUS
 62
    3
 10
145.21099835629025
 20
113.46983976063974
 11
143.94737267005715
 21
117.54707892607472
  0
LINE
  8
_1-2_
  6
CONTINUOUS
 62
    3
 10
204.19956333728689
 20
132.57392614683062
 11
202.39280724036965
 21
138.40353413616762
  0
LINE
  8
_1-2_
  6
CONTINUOUS
 62
    7
 10
143.94737267005715
 20
117.54707892607472
 11
139.2389392610622
 21
131.1555515955215
  0
LINE
  8
_1-0_
  6
CONTINUOUS
 62
    7
 10
198.39601076127337
 20
128.938144368959
 11
196.93584362392116
 21
132.18299597104937
  0
LINE
  8
_1-0_
  6
CONTINUOUS
 62
    7
 10
198.39601076127337
 20
128.93813199696785
 11
196.93581887993889
 21
132.18298359905825
  0
LINE
  8
_1-0_
  6
CONTINUOUS
 62
    7
 10
196.93581887993889
 20
132.18298359905825
 11
201.267351951096
 21
134.17778158918705
  0
LINE
  8
_1-0_
  6
CONTINUOUS
 62
    7
 10
196.93584362392116
 20
132.18299597104937
 11
202.77324596767116
 21
130.90788907704601
  0
LINE
  8
_1-0_
  6
CONTINUOUS
 62
    7
 10
248.71586797199973
 20
155.52978453207135
 11
250.19318268906054
 21
152.24685194127741
  0
LINE
  8
_1-0_
  6
CONTINUOUS
 62
    7
 10
250.19318268906054
 20
152.24685194127741
 11
245.81594748266272
 21
150.27710723319043
  0
LINE
  8
_1-0_
  6
CONTINUOUS
 62
    7
 10
248.71586797199973
 20
155.52975978808908
 11
250.19318268906054
 21
152.24685194127741
  0
LINE
  8
_1-2_
  6
CONTINUOUS
 62
    3
 10
249.80534551106223
 20
153.28520841298351
 11
251.61950005867624
 21
153.91288901106205
  0
LINE
  8
ADD_LINE
  6
DOT
 62
    7
 10
248.09939639788655
 20
158.51479957641254
 11
247.92166037328772
 21
159.08819187740494
  0
LINE
  8
_1-2_
  6
CONTINUOUS
 62
    3
 10
247.92166037328772
 20
159.08819187740494
 11
248.09939639788655
 21
158.51479957641254
  0
LINE
  8
_1-2_
  6
CONTINUOUS
 62
    3
 10
248.98795280096931
 20
155.64771435153924
 11
249.80799311716441
 21
153.27758726644635
  0
LINE
  8
_1-2_
  6
CONTINUOUS
 62
    3
 10
193.34442780624804
 20
135.54687849981838
 11
194.1008018560791
 21
135.80859560021958
  0
LINE
  8
_1-2_
  6
CONTINUOUS
 62
    3
 10
195.26312567892538
 20
137.05946576359582
 11
248.98795280096931
 21
155.64771435153924
  0
LINE
  8
_1-2_
  6
CONTINUOUS
 62
    3
 10
194.23832890949973
 20
135.36496074221702
 11
194.1008018560791
 21
135.80859560021958
  0
LINE
  8
_1-2_
  6
CONTINUOUS
 62
    3
 10
193.48576543293723
 20
135.09078504674616
 11
193.34442780624804
 21
135.54687849981838
  0
LINE
  8
_1-2_
  6
CONTINUOUS
 62
    3
 10
194.96753406680546
 20
135.39872390601559
 11
194.49477554167876
 21
135.2351414392715
  0
LINE
  8
_1-2_
  6
CONTINUOUS
 62
    3
 10
195.0931592647573
 20
135.6469307921009
 11
194.88617585312304
 21
136.31482036135765
  0
LINE
  8
_1-2_
  6
CONTINUOUS
 62
    3
 10
192.88735696587639
 20
134.67899569391676
 11
193.36011549100309
 21
134.84257816066085
  0
LINE
  8
_1-2_
  6
CONTINUOUS
 62
    3
 10
248.09939639788655
 20
158.51479957641254
 11
191.36728464746423
 21
138.88604179030614
  0
LINE
  8
_1-2_
  6
CONTINUOUS
 62
    3
 10
192.63091033369736
 20
134.80880262487116
 11
191.36728464746423
 21
138.88604179030614
  0
LINE
  8
_1-2_
  6
CONTINUOUS
 62
    3
 10
247.92166037328772
 20
159.08819187740494
 11
249.812743961759
 21
159.74249700039903
  0
LINE
  8
_1-2_
  6
CONTINUOUS
 62
    3
 10
251.61950005867624
 20
153.91288901106205
 11
249.812743961759
 21
159.74249700039903
  0
LINE
  8
_1-2_
  6
CONTINUOUS
 62
    7
 10
191.36728464746423
 20
138.88604179030614
 11
186.65890072643384
 21
152.49451445975293
  0
LINE
  8
_1-2_
  6
CONTINUOUS
 62
    7
 10
245.30050558813147
 20
172.78396131627741
 11
186.65890072643384
 21
152.49451445975293
  0
LINE
  8
_1-2_
  6
CONTINUOUS
 62
    7
 10
249.812743961759
 20
159.74249700039903
 11
245.30050558813147
 21
172.78396131627741
  0
LINE
  8
_1-0_
  6
CONTINUOUS
 62
    7
 10
245.81594748266272
 20
150.27710723319043
 11
244.35578034531054
 21
153.5219588352808
  0
LINE
  8
_1-0_
  6
CONTINUOUS
 62
    7
 10
245.81594748266272
 20
150.27708248920817
 11
244.35575560132827
 21
153.5219588352808
  0
LINE
  8
_1-0_
  6
CONTINUOUS
 62
    7
 10
244.35578034531054
 20
153.5219588352808
 11
250.19318268906054
 21
152.24685194127741
  0
LINE
  8
_1-2_
  6
CONTINUOUS
 62
    7
 10
140.76297061663652
 20
126.75072684889989
 11
91.819039655646236
 21
109.81658873129008
  0
LINE
  8
_1-2_
  6
CONTINUOUS
 62
    7
 10
154.97289526296254
 20
117.0645712719362
 11
154.62595988764582
 21
118.06727166520055
  0
LINE
  8
_1-2_
  6
CONTINUOUS
 62
    3
 10
153.08181167449126
 20
116.41026614894211
 11
154.9729200069448
 21
117.0645712719362
  0
LINE
  8
ADD_LINE
  6
DOT
 62
    7
 10
156.77965135987978
 20
111.23496328259921
 11
154.9729200069448
 21
117.0645712719362
  0
LINE
  8
_1-2_
  6
CONTINUOUS
 62
    7
 10
153.08181167449126
 20
116.41026614894211
 11
152.76753835576238
 21
117.42428691409202
  0
LINE
  8
ADD_LINE
  6
DOT
 62
    7
 10
204.19956333728689
 20
132.57392614683062
 11
202.39283198435191
 21
138.40353413616762
  0
LINE
  8
_1-2_
  6
CONTINUOUS
 62
    3
 10
200.50172365189837
 20
137.74922901317353
 11
202.39283198435191
 21
138.40353413616762
  0
LINE
  8
_1-2_
  6
CONTINUOUS
 62
    7
 10
188.1829073380259
 20
148.08968971313129
 11
139.2389392610622
 21
131.1555515955215
  0
LINE
  8
_1-2_
  6
CONTINUOUS
 62
    7
 10
202.39280724036965
 20
138.40353413616762
 11
202.04587186505293
 21
139.40623452943197
  0
LINE
  8
_1-0_
  6
CONTINUOUS
 62
    7
 10
244.35575560132827
 20
153.5219588352808
 11
248.71579374005293
 21
155.52988350800038
  0
LINE
  8
_1-0_
  6
CONTINUOUS
 62
    7
 10
248.71579374005293
 20
155.52988350800038
 11
250.19315794507827
 21
152.24685194127741
  0
LINE
  8
_1-0_
  6
CONTINUOUS
 62
    7
 10
250.19315794507827
 20
152.24685194127741
 11
245.83814283475309
 21
150.28710380202489
  0
LINE
  8
_1-0_
  6
CONTINUOUS
 62
    7
 10
245.83814283475309
 20
150.28710380202489
 11
245.81592273868046
 21
150.27710723319043
  0
LINE
  8
_1-0_
  6
CONTINUOUS
 62
    7
 10
149.51590690253181
 20
110.84402073482683
 11
153.875994529221
 21
112.85195777953756
  0
LINE
  8
_1-0_
  6
CONTINUOUS
 62
    7
 10
76.051716393663554
 20
73.883198294344353
 11
245.84086467280207
 21
150.2883162571558
  0
LINE
  8
_1-2_
  6
CONTINUOUS
 62
    3
 10
76.051716393663554
 20
81.316333868272764
 11
106.75790964746423
 21
91.641230603386788
  0
LINE
  8
_1-2_
  6
CONTINUOUS
 62
    3
 10
105.89439415443212
 20
94.515936974797256
 11
76.051716393663554
 21
84.481398499554444
  0
LINE
  8
_1-2_
  6
CONTINUOUS
 62
    7
 10
93.453144616319804
 20
105.52484398361271
 11
76.051716393663554
 21
99.673646869750812
  0
LINE
  8
_1-2_
  6
CONTINUOUS
 62
    3
 10
200.67945967649717
 20
137.17583671218114
 11
143.94737267005715
 21
117.54707892607472
  0
LINE
  8
ADD_LINE
  6
DOT
 62
    7
 10
200.67945967649717
 20
137.17583671218114
 11
200.50172365189837
 21
137.74922901317353
  0
ARC
  8
_1-2_
  6
CONTINUOUS
 62
    3
 10
100.61943489952293
 20
93.814519309573441
 40
0.599999959404404
 50
109.0858917236328
 51
197.21983337402344
  0
ARC
  8
_1-2_
  6
CONTINUOUS
 62
    3
 10
99.589540869750977
 20
92.746222619328506
 40
0.1999999904954755
 50
197.21757507324216
 51
289.0885009765625
  0
ARC
  8
_1-2_
  6
CONTINUOUS
 62
    3
 10
98.454868447084152
 20
92.353646968726736
 40
0.1999999904954755
 50
289.08401489257812
 51
17.217575073242223
  0
ARC
  8
_1-2_
  6
CONTINUOUS
 62
    3
 10
100.06226227890426
 20
92.909792714081462
 40
0.1999999904954755
 50
289.0885009765625
 51
17.219955444335916
  0
ARC
  8
_1-2_
  6
CONTINUOUS
 62
    3
 10
97.982109921957459
 20
92.190089245964913
 40
0.1999999904954755
 50
197.216552734375
 51
289.08514404296875
  0
ARC
  8
_1-2_
  6
CONTINUOUS
 62
    3
 10
148.03933450493889
 20
115.15348217380486
 40
0.599999959404404
 50
109.0858917236328
 51
197.21983337402344
  0
ARC
  8
_1-2_
  6
CONTINUOUS
 62
    3
 10
147.00944047516694
 20
114.08518548355993
 40
0.1999999904954755
 50
197.21757507324216
 51
289.0885009765625
  0
ARC
  8
_1-2_
  6
CONTINUOUS
 62
    3
 10
145.87478042449126
 20
113.69260983295815
 40
0.1999999904954755
 50
289.08401489257812
 51
17.217575073242223
  0
ARC
  8
_1-2_
  6
CONTINUOUS
 62
    3
 10
147.48217425631137
 20
114.24875557831288
 40
0.1999999904954755
 50
289.0885009765625
 51
17.219955444335916
  0
ARC
  8
_1-2_
  6
CONTINUOUS
 62
    3
 10
145.40202189936457
 20
113.52905211019633
 40
0.1999999904954755
 50
197.216552734375
 51
289.08514404296875
  0
ARC
  8
_1-2_
  6
CONTINUOUS
 62
    3
 10
195.45929597031054
 20
136.49244503803629
 40
0.599999959404404
 50
109.0858917236328
 51
197.21983337402344
  0
ARC
  8
_1-2_
  6
CONTINUOUS
 62
    3
 10
194.42940194053855
 20
135.42414834779134
 40
0.1999999904954755
 50
197.21757507324216
 51
289.0885009765625
  0
ARC
  8
_1-2_
  6
CONTINUOUS
 62
    3
 10
193.29471714588064
 20
135.03157269718957
 40
0.1999999904954755
 50
289.08401489257812
 51
17.217575073242223
  0
ARC
  8
_1-2_
  6
CONTINUOUS
 62
    3
 10
194.90211097770072
 20
135.58771844254431
 40
0.1999999904954755
 50
289.0885009765625
 51
17.219955444335916
  0
ARC
  8
_1-2_
  6
CONTINUOUS
 62
    3
 10
192.82195862075395
 20
134.86801497442775
 40
0.1999999904954755
 50
197.216552734375
 51
289.08514404296875
  0
LINE
  8
_1-0_
  6
CONTINUOUS
 62
    7
 10
245.84086467280207
 20
150.2883162571558
 11
251.76964718274189
 21
152.95626407961075
  0
LINE
  8
_1-0_
  6
CONTINUOUS
 62
    7
 10
251.76964718274189
 20
152.95626407961075
 11
252.01585878386456
 21
152.40912719721047
  0
LINE
  8
_1-0_
  6
CONTINUOUS
 62
    7
 10
76.051716393663554
 20
73.225255805957516
 11
252.01585878386456
 21
152.40912719721047
  0
LINE
  8
_1-0_
  6
DASHED1
 62
    3
 10
76.051716393663554
 20
72.627385520510941
 11
253.84514885979732
 21
152.63440833744477
  0
LINE
  8
_1-1_
  6
DASHED1
 62
    3
 10
253.84514885979732
 20
152.63440833744477
 11
253.84514885979732
 21
225.6174778293919
  0
LINE
  8
_1-1_
  6
CONTINUOUS
 62
    7
 10
76.051716393663554
 20
46.249264085299544
 11
254.19552364864867
 21
126.413949502481
  0
LINE
  8
_1-0_
  6
CONTINUOUS
 62
    7
 10
76.051716393663554
 20
72.128670557989835
 11
254.19552364864867
 21
152.29337413662466
  0
LINE
  8
_1-1_
  6
CONTINUOUS
 62
    7
 10
76.051716393663554
 20
68.180975362826757
 11
254.19552364864867
 21
148.34566683382602
  0
LINE
  8
_1-1_
  6
CONTINUOUS
 62
    7
 10
76.051716393663554
 20
50.635608104079196
 11
254.19552364864867
 21
130.80029049435177
  0
LINE
  8
_1-1_
  6
DASHED1
 62
    7
 10
76.051716393663554
 20
46.753693394083285
 11
254.00675180796031
 21
126.83343423379435
  0
LINE
  8
_1-1_
  6
CONTINUOUS
 62
    7
 10
76.051716393663554
 20
69.263495601460207
 11
81.261130668021536
 21
74.472909875818203
  0
LINE
  8
_1-1_
  6
CONTINUOUS
 62
    7
 10
76.051716393663554
 20
63.794631455571462
 11
254.19552364864867
 21
143.95932584195523
  0
LINE
  8
_1-1_
  6
DASHED1
 62
    7
 10
76.051716393663554
 20
67.676546053401523
 11
254.19552364864867
 21
147.84123480018363
  0
LINE
  8
_1-1_
  6
CONTINUOUS
 62
    7
 10
76.051716364498503
 20
63.794631520382808
 11
76.156205873231613
 21
63.841651710304063
  0
LINE
  8
_1-1_
  6
CONTINUOUS
 62
    7
 10
76.051716393663554
 20
71.526235162793256
 11
77.147060084987345
 21
72.621577494853256
  0
LINE
  8
_1-1_
  6
CONTINUOUS
 62
    7
 10
76.051716393663554
 20
71.026512453588794
 11
78.014151083456511
 21
69.064073304872252
  0
LINE
  8
_1-1_
  6
CONTINUOUS
 62
    7
 10
78.412618313098392
 20
73.191076293367587
 11
81.13516524031354
 21
70.468523180162592
  0
LINE
  8
_1-1_
  6
CONTINUOUS
 62
    7
 10
76.051716393663554
 20
73.289225820174792
 11
76.095833712714125
 21
73.245108601364436
  0
LINE
  8
_1-1_
  6
CONTINUOUS
 62
    7
 10
76.852100617304501
 20
72.488843415109457
 11
79.574655068887239
 21
69.766295149519635
  0
LINE
  8
_1-1_
  6
CONTINUOUS
 62
    7
 10
78.197566758967014
 20
69.146607764694423
 11
85.375201251055742
 21
76.324242256783151
  0
TEXT
  8
_0-0_
 62
    7
 10
14.594594336844779
 20
24.324324324324323
 40
2.5
 41
1
 50
0
  1
Ｓ形
  0
TEXT
  8
_1-3_
 62
    7
 10
97.713666348843958
 20
141.52874920819258
 40
2.5
 41
1
 50
0
  1
Ｓ形　桟瓦
  0
TEXT
  8
_1-3_
 62
    7
 10
195.44478395148386
 20
63.458136701966581
 40
2.5
 41
1
 50
0
  1
15×21　（樹脂桟木）
  0
TEXT
  8
_1-3_
 62
    7
 10
181.71292691617398
 20
57.513873126055756
 40
2.5
 41
1
 50
0
  1
縦桟
  0
TEXT
  8
_1-3_
 62
    7
 10
181.71292485417547
 20
51.513878074852201
 40
2.5
 41
1
 50
0
  1
ルーフィング
  0
TEXT
  8
_1-3_
 62
    7
 10
181.7129289781725
 20
39.513875600453986
 40
2.5
 41
1
 50
0
  1
たる木
  0
TEXT
  8
_1-4_
 62
    7
 10
202.08942619033073
 20
195.29026676202011
 40
2.5
 41
1
 50
0
  1
葺き土
  0
TEXT
  8
_1-f_
 62
    7
 10
281.70088886038491
 20
261.30873849749298
 40
3
 41
1
 50
0
  1
ルーフィング立上げ長さは、300ｍｍ以上かつ
  0
TEXT
  8
_1-4_
 62
    7
 10
294.46163821775201
 20
184.46771338549226
 40
2.5
 41
1
 50
0
  1
ルーフィング立上がり寸法
  0
ARC
  8
_1-4_
  6
CONTINUOUS
 62
    3
 10
222.70717311549834
 20
162.60940964157518
 40
17.575401615452122
 50
335.25164449866844
 51
32.147370235859739
  0
LINE
  8
ADD_LINE
  6
DOT
 62
    7
 10
251.61950005867624
 20
153.91288901106205
 11
252.01585878386456
 21
152.40912719721047
  0
LINE
  8
ADD_LINE
  6
DOT
 62
    7
 10
252.01585878386456
 20
152.40912719721047
 11
253.84514885979732
 21
152.63440833744477
  0
LINE
  8
ADD_LINE
  6
DOT
 62
    7
 10
248.95748591532606
 20
176.67151399934593
 11
253.84514885979732
 21
176.67151399934593
  0
ARC
  8
_1-5_
  6
CONTINUOUS
 62
    1
 10
222.70717311549834
 20
162.60940964157518
 40
17.575401615452122
 50
335.25164449866844
 51
32.147370235859739
  0
SOLID
  8
ADD_LINE
  6
DOT
 62
    8
 10
237.58795439102605
 20
171.96125922197055
 11
242.65458129697674
 21
163.89917843848468
 12
247.92166037328772
 22
159.08819187740494
 13
247.92166037328772
 23
159.08819187740494
  0
SOLID
  8
ADD_LINE
  6
DOT
 62
    8
 10
237.58795439102605
 20
171.96125922197055
 11
247.92166037328772
 21
159.08819187740494
 12
249.812743961759
 22
159.74249700039903
 13
249.812743961759
 23
159.74249700039903
  0
SOLID
  8
ADD_LINE
  6
DOT
 62
    8
 10
237.58795439102605
 20
171.96125922197055
 11
249.13205786765471
 21
175.56929185031444
 12
247.45057031916386
 22
175.24625187737638
 13
247.45057031916386
 23
175.24625187737638
  0
SOLID
  8
ADD_LINE
  6
DOT
 62
    8
 10
237.58795439102605
 20
171.96125922197055
 11
247.45057031916386
 21
175.24625187737638
 12
246.21663251022173
 22
174.99946431558797
 13
246.21663251022173
 23
174.99946431558797
  0
SOLID
  8
ADD_LINE
  6
DOT
 62
    8
 10
237.58795439102605
 20
171.96125922197055
 11
246.21663251022173
 21
174.99946431558797
 12
245.14721974247189
 22
174.72917317648637
 13
245.14721974247189
 23
174.72917317648637
  0
SOLID
  8
ADD_LINE
  6
DOT
 62
    8
 10
237.58795439102605
 20
171.96125922197055
 11
245.14721974247189
 21
174.72917317648637
 12
244.10131055203524
 22
174.45888203738474
 13
244.10131055203524
 23
174.45888203738474
  0
SOLID
  8
ADD_LINE
  6
DOT
 62
    8
 10
237.58795439102605
 20
171.96125922197055
 11
244.10131055203524
 21
174.45888203738474
 12
242.97313884100245
 22
174.11808016634359
 13
242.97313884100245
 23
174.11808016634359
  0
SOLID
  8
ADD_LINE
  6
DOT
 62
    8
 10
237.58795439102605
 20
171.96125922197055
 11
242.97313884100245
 21
174.11808016634359
 12
241.56292420221146
 22
173.62450504276674
 13
241.56292420221146
 23
173.62450504276674
  0
SOLID
  8
ADD_LINE
  6
DOT
 62
    8
 10
237.58795439102605
 20
171.96125922197055
 11
241.56292420221146
 21
173.62450504276674
 12
240.61102932102753
 22
173.28370317172559
 13
240.61102932102753
 23
173.28370317172559
  0
SOLID
  8
ADD_LINE
  6
DOT
 62
    8
 10
237.58795439102605
 20
171.96125922197055
 11
240.61102932102753
 21
173.28370317172559
 12
239.76490053775294
 22
172.93114951202784
 13
239.76490053775294
 23
172.93114951202784
  0
SOLID
  8
ADD_LINE
  6
DOT
 62
    8
 10
237.58795439102605
 20
171.96125922197055
 11
239.76490053775294
 21
172.93114951202784
 12
238.554466306124
 22
172.437574388451
 13
238.554466306124
 23
172.437574388451
  0
SOLID
  8
ADD_LINE
  6
DOT
 62
    8
 10
242.65458129697674
 20
163.89917843848468
 11
238.66836530517543
 21
155.25175472790684
 12
247.92166037328772
 22
159.08819187740494
 13
248.09939639788655
 23
158.51479957641254
  0
SOLID
  8
ADD_LINE
  6
DOT
 62
    8
 10
251.61950005867624
 20
153.91288901106205
 11
252.01585878386456
 21
152.40912719721047
 12
253.84514885979732
 22
152.63440833744477
 13
253.84514885979732
 23
152.63440833744477
  0
SOLID
  8
ADD_LINE
  6
DOT
 62
    8
 10
251.61950005867624
 20
153.91288901106205
 11
253.84514885979732
 21
152.63440833744477
 12
249.812743961759
 22
159.74249700039903
 13
249.812743961759
 23
159.74249700039903
  0
SOLID
  8
ADD_LINE
  6
DOT
 62
    8
 10
248.95748591532606
 20
176.67151399934593
 11
249.13206358213685
 21
175.56929304793076
 12
248.95748591532606
 22
176.67151399934593
 13
253.84514885979732
 23
176.67151399934593
  0
LINE
  8
_1-1_
  6
CONTINUOUS
 62
    7
 10
248.62735619371051
 20
179.25530744889986
 11
247.45647918382653
 21
179.04471805863295
  0
LINE
  8
_1-1_
  6
CONTINUOUS
 62
    7
 10
248.62735619371051
 20
179.25530744889986
 11
249.21652603648639
 21
175.53549977594773
  0
LINE
  8
_1-1_
  6
DASHED1
 62
    7
 10
247.45647918382653
 20
179.04471805863295
 11
248.13266200064004
 21
175.34181215703529
  0
LINE
  8
_1-1_
  6
CONTINUOUS
 62
    7
 10
249.21652603648639
 20
175.53549977594773
 11
248.13266200064004
 21
175.34181215703529
  0
LINE
  8
_1-1_
  6
CONTINUOUS
 62
    7
 10
247.8779515365481
 20
175.11685683211226
 11
247.8779515365481
 21
165.57180689121091
  0
LINE
  8
_1-1_
  6
CONTINUOUS
 62
    7
 10
253.62391375004984
 20
175.11685683211226
 11
253.62391375004984
 21
165.57180689121091
  0
LINE
  8
_1-1_
  6
CONTINUOUS
 62
    7
 10
247.8779515365481
 20
165.57180689121091
 11
253.62391375004984
 21
165.57180689121091
  0
LINE
  8
_1-1_
  6
CONTINUOUS
 62
    7
 10
253.62391375004984
 20
175.11685683211226
 11
247.8779515365481
 21
175.11685683211226
  0
LINE
  8
_1-1_
  6
CONTINUOUS
 62
    7
 10
247.8779515365481
 20
175.11685683211226
 11
253.62391375004984
 21
165.57180689121091
  0
LINE
  8
_1-1_
  6
DASHED1
 62
    7
 10
250.89119523668728
 20
175.04974884301762
 11
250.89119523668728
 21
171.55106229578701
  0
LINE
  8
_1-1_
  6
DASHED1
 62
    7
 10
251.29119523668732
 20
175.04974884301762
 11
251.29119523668732
 21
171.55106229578701
  0
LINE
  8
_1-1_
  6
DASHED1
 62
    7
 10
251.29119523668732
 20
171.55106229578701
 11
251.09119523668733
 21
171.17537855651554
  0
LINE
  8
_1-1_
  6
DASHED1
 62
    7
 10
250.89119523668728
 20
171.55106229578701
 11
251.09119523668733
 21
171.17537855651554
  0
LINE
  8
ADD_LINE
  6
DOT
 62
    4
 10
251.09119523668733
 20
175.61189786548019
 11
251.09119523668733
 21
171.17537855651554
  0
LINE
  8
_1-1_
  6
CONTINUOUS
 62
    7
 10
250.4911952366873
 20
175.26951167062634
 11
251.69119523668729
 21
175.26951167062634
  0
LINE
  8
_1-1_
  6
CONTINUOUS
 62
    7
 10
250.89119523668728
 20
175.26951167062634
 11
250.89119523668728
 21
175.04974884301762
  0
LINE
  8
_1-1_
  6
CONTINUOUS
 62
    7
 10
251.29119523668732
 20
175.26951167062634
 11
251.29119523668732
 21
175.04974884301762
  0
LINE
  8
_1-1_
  6
CONTINUOUS
 62
    7
 10
250.4911952366873
 20
175.48984578578967
 11
250.4911952366873
 21
175.26951167062634
  0
LINE
  8
_1-1_
  6
CONTINUOUS
 62
    7
 10
250.4911952366873
 20
175.48984578578967
 11
251.69119523668729
 21
175.48984578578967
  0
LINE
  8
_1-1_
  6
CONTINUOUS
 62
    7
 10
251.69119523668729
 20
175.26951167062634
 11
251.69119523668729
 21
175.48984578578967
  0
LINE
  8
_1-1_
  6
CONTINUOUS
 62
    7
 10
250.47099505395408
 20
175.16144970211133
 11
251.61660133700599
 21
175.16144970211133
  0
LINE
  8
_1-1_
  6
CONTINUOUS
 62
    7
 10
248.13266200064004
 20
175.34181215703529
 11
250.47099505395408
 21
175.16144970211133
  0
LINE
  8
ADD_LINE
  6
DOT
 62
    4
 10
253.62391375004984
 20
175.11685683211226
 11
254.14581538210126
 21
175.11685683211226
  0
LINE
  8
ADD_LINE
  6
DOT
 62
    4
 10
253.62391375004984
 20
165.57180689121091
 11
254.01275729067626
 21
165.57180689121091
  0
LINE
  8
ADD_LINE
  6
DOT
 62
    4
 10
248.13266200064004
 20
175.34181215703529
 11
247.8779515365481
 21
175.11685683211226
  0
SOLID
  8
ADD_LINE
  6
DOT
 62
    8
 10
249.13205786765468
 20
175.56929185031441
 11
248.13266200064004
 21
175.34181215703529
 12
247.8779515365481
 22
175.11685683211226
 13
247.8779515365481
 23
175.11685683211226
  0
SOLID
  8
ADD_LINE
  6
DOT
 62
    8
 10
249.13205786765468
 20
175.56929185031441
 11
247.8779515365481
 21
175.11685683211226
 12
250.4911952366873
 22
175.48984578578967
 13
250.4911952366873
 23
175.48984578578967
  0
SOLID
  8
ADD_LINE
  6
DOT
 62
    8
 10
249.13205786765468
 20
175.56929185031441
 11
250.4911952366873
 21
175.48984578578967
 12
251.69119523668729
 22
175.48984578578967
 13
251.69119523668729
 23
175.48984578578967
  0
SOLID
  8
ADD_LINE
  6
DOT
 62
    8
 10
249.13205786765468
 20
175.56929185031441
 11
251.69119523668729
 21
175.48984578578967
 12
253.84514885979732
 22
176.67151399934593
 13
253.84514885979732
 23
176.67151399934593
  0
LINE
  8
ADD_LINE
  6
DOT
 62
    4
 10
250.4911952366873
 20
175.26951167062634
 11
250.4911952366873
 21
174.82990298731031
  0
LINE
  8
ADD_LINE
  6
DOT
 62
    4
 10
251.69119523668729
 20
175.26951167062634
 11
251.69119523668729
 21
174.87364637099671
  0
SOLID
  8
ADD_LINE
  6
DOT
 62
    8
 10
250.4911952366873
 20
175.48984578578967
 11
247.8779515365481
 21
175.11685683211226
 12
250.4911952366873
 22
175.48984578578967
 13
250.4911952366873
 23
175.11685683211226
  0
SOLID
  8
ADD_LINE
  6
DOT
 62
    8
 10
251.69119523668729
 20
175.48984578578967
 11
251.69119523668729
 21
175.11685683211226
 12
253.84514885979732
 22
176.67151399934593
 13
253.84514885979732
 23
175.11685683211226
  0
SOLID
  8
ADD_LINE
  6
DOT
 62
    8
 10
237.58795439102607
 20
171.96125922197052
 11
249.812743961759
 21
159.74249700039903
 12
247.8779515365481
 22
165.57180689121091
 13
247.8779515365481
 23
165.57180689121091
  0
SOLID
  8
ADD_LINE
  6
DOT
 62
    8
 10
237.58795439102607
 20
171.96125922197052
 11
247.8779515365481
 21
165.57180689121091
 12
247.8779515365481
 22
175.11685683211226
 13
247.8779515365481
 23
175.11685683211226
  0
SOLID
  8
ADD_LINE
  6
DOT
 62
    8
 10
248.13266200064004
 20
175.34181215703529
 11
237.58795439102499
 21
171.96125922197004
 12
248.13266200064004
 22
175.34181215703529
 13
247.8779515365481
 23
175.11685683211226
  0
SOLID
  8
ADD_LINE
  6
DOT
 62
    8
 10
247.8779515365481
 20
165.57180689121091
 11
249.812743961759
 21
159.74249700039903
 12
253.84514885979732
 22
165.57180689121091
 13
253.84514885979732
 23
152.63440833744477
  0
ENDSEC
  0
EOF
