  0
SECTION
  2
HEADER
  9
$ACADVER
  1
AC1009
  9
$INSBASE
 10
0
 20
0
 30
0
  9
$EXTMIN
 10
0
 20
0
  9
$EXTMAX
 10
420
 20
297
  9
$LIMMIN
 10
0
 20
0
  9
$LIMMAX
 10
420
 20
297
  9
$LTSCALE
 40
1
  0
ENDSEC
  0
SECTION
  2
TABLES
  0
TABLE
  2
LTYPE
 70
     9
  0
LTYPE
  2
CONTINUOUS
 70
    64
  3
実線
 72
    65
 73
     0
 40
0.0
  0
LTYPE
  2
DASHED1
 70
    64
  3
--  --  --  --  --  --  --  --  
 72
    65
 73
     2
 40
2.5
 49
1.25
 49
-1.25
  0
LTYPE
  2
DASHED2
 70
    64
  3
----    ----    ----    ----    
 72
    65
 73
     2
 40
5.0
 49
2.5
 49
-2.5
  0
LTYPE
  2
DASHED3
 70
    64
  3
------  ------  ------  ------  
 72
    65
 73
     2
 40
5.0
 49
3.75
 49
-1.25
  0
LTYPE
  2
CENTER1
 70
    64
  3
----- - ----- - ----- - ----- - 
 72
    65
 73
     4
 40
10.0
 49
6.25
 49
-1.25
 49
1.25
 49
-1.25
  0
LTYPE
  2
CENTER2
 70
    64
  3
----------  --  ----------  --  
 72
    65
 73
     4
 40
20.0
 49
12.5
 49
-2.5
 49
2.5
 49
-2.5
  0
LTYPE
  2
PHANTOM1
 70
    64
  3
--- - - --- - - --- - - --- - - 
 72
    65
 73
     6
 40
10.0
 49
3.25
 49
-1.25
 49
1.25
 49
-1.25
 49
1.25
 49
-1.25
  0
LTYPE
  2
PHANTOM2
 70
    64
  3
--------  -  -  --------  -  -  
 72
    65
 73
     6
 40
20.0
 49
10.0
 49
-2.5
 49
1.25
 49
-2.5
 49
1.25
 49
-2.5
  0
LTYPE
  2
DOT
 70
    64
  3
-   -   -   -   -   -   -   -   
 72
    65
 73
     2
 40
2.5
 49
0.625
 49
-1.875
  0
LTYPE
  2
DUMMY
 70
    64
  3
ダミー
 72
    65
 73
     0
 40
0.0
  0
LTYPE
  2
RAND1
 70
    64
  3
ランダム線1
 72
    65
 73
     4
 40
10.0
 49
1.0
 49
-2.0
 49
3.0
 49
-4.0
  0
LTYPE
  2
RAND2
 70
    64
  3
ランダム線2
 72
    65
 73
     4
 40
14.0
 49
2.0
 49
-3.0
 49
4.0
 49
-5.0
  0
LTYPE
  2
RAND3
 70
    64
  3
ランダム線3
 72
    65
 73
     4
 40
18.0
 49
3.0
 49
-4.0
 49
5.0
 49
-6.0
  0
LTYPE
  2
RAND4
 70
    64
  3
ランダム線4
 72
    65
 73
     4
 40
22.0
 49
4.0
 49
-5.0
 49
6.0
 49
-7.0
  0
LTYPE
  2
RAND5
 70
    64
  3
ランダム線5
 72
    65
 73
     4
 40
26.0
 49
5.0
 49
-6.0
 49
7.0
 49
-8.0
  0
LTYPE
  2
LONG1
 70
    64
  3
----------  --  ----------  --  
 72
    65
 73
     4
 40
40.0
 49
32.5
 49
-2.5
 49
2.5
 49
-2.5
  0
LTYPE
  2
LONG2
 70
    64
  3
--------  -  -  --------  -  -  
 72
    65
 73
     6
 40
40.0
 49
30.0
 49
-2.5
 49
1.25
 49
-2.5
 49
1.25
 49
-2.5
  0
LTYPE
  2
LONG3
 70
    64
  3
+++++++++++++++..+++++++++++++++
 72
    65
 73
     2
 40
40.0
 49
37.5
 49
-2.5
  0
LTYPE
  2
LONG4
 70
    64
  3
+++++++++++++++..+++++++++++++++
 72
    65
 73
     2
 40
80.0
 49
75.0
 49
-5.0
  0
LTYPE
  2
LONG5
 70
    64
  3
----------  --  ----------  --  
 72
    65
 73
     4
 40
60.0
 49
37.5
 49
-7.5
 49
7.5
 49
-7.5
  0
LTYPE
  2
dashed
 70
   64
  3
-------   -------------   ------
 72
   65
 73
    2
 40
7.5
 49
6
 49
-1.5
  0
LTYPE
  2
dashed_spaced
 70
   64
  3
----        --------        ----
 72
   65
 73
    2
 40
12
 49
6
 49
-6
  0
LTYPE
  2
long_dashed_dotted
 70
   64
  3
------------- --- --------------
 72
   65
 73
    4
 40
15.25
 49
12
 49
-1.5
 49
0.25
 49
-1.5
  0
LTYPE
  2
long_dashed_double-dotted
 70
   64
  3
----------- --- --- ------------
 72
   65
 73
    6
 40
17
 49
12
 49
-1.5
 49
0.25
 49
-1.5
 49
0.25
 49
-1.5
  0
LTYPE
  2
long_dashed_triplicate-dotted
 70
   64
  3
--------- --- --- --- ----------
 72
   65
 73
    8
 40
18.75
 49
12
 49
-1.5
 49
0.25
 49
-1.5
 49
0.25
 49
-1.5
 49
0.25
 49
-1.5
  0
LTYPE
  2
dotted
 70
   64
  3
   -       -       -       -    
 72
   65
 73
    2
 40
1.75
 49
0.25
 49
-1.5
  0
LTYPE
  2
chain
 70
   64
  3
-------------- -- --------------
 72
   65
 73
    4
 40
18.5
 49
12
 49
-1.5
 49
3.5
 49
-1.5
  0
LTYPE
  2
chain_double_dash
 70
   64
  3
------------ -- -- -------------
 72
   65
 73
    6
 40
23.5
 49
12
 49
-1.5
 49
3.5
 49
-1.5
 49
3.5
 49
-1.5
  0
LTYPE
  2
dashed_dotted
 70
   64
  3
-----------     -     ----------
 72
   65
 73
    4
 40
9.25
 49
6
 49
-1.5
 49
0.25
 49
-1.5
  0
LTYPE
  2
double-dashed_dotted
 70
   64
  3
------   -----------   -   -----
 72
   65
 73
    6
 40
16.75
 49
6
 49
-1.5
 49
6
 49
-1.5
 49
0.25
 49
-1.5
  0
LTYPE
  2
dashed_double-dotted
 70
   64
  3
---------    -    -    ---------
 72
   65
 73
    6
 40
11
 49
6
 49
-1.5
 49
0.25
 49
-1.5
 49
0.25
 49
-1.5
  0
LTYPE
  2
double-dashed_double-dotted
 70
   64
  3
-----   ---------   -   -   ----
 72
   65
 73
    8
 40
18.5
 49
6
 49
-1.5
 49
6
 49
-1.5
 49
0.25
 49
-1.5
 49
0.25
 49
-1.5
  0
LTYPE
  2
dashed_triplicate-dotted
 70
   64
  3
-------    -    -    -    ------
 72
   65
 73
    8
 40
12.75
 49
6
 49
-1.5
 49
0.25
 49
-1.5
 49
0.25
 49
-1.5
 49
0.25
 49
-1.5
  0
LTYPE
  2
double-dashed_triplicate-dotted
 70
   64
  3
-----  ---------  -  -  -  -----
 72
   65
 73
   10
 40
20.25
 49
6
 49
-1.5
 49
6
 49
-1.5
 49
0.25
 49
-1.5
 49
0.25
 49
-1.5
 49
0.25
 49
-1.5
  0
LTYPE
  2
undefined
 70
   64
  3
--------------------------------
 72
   65
 73
    0
 40
0
  0
ENDTAB
  0
TABLE
  2
STYLE
  5
3
100
AcDbSymbolTable
 70
     1
  0
STYLE
  5
10
100
AcDbSymbolTableRecord
100
AcDbTextStyleTableRecord
  2
STANDARD
 70
     0
 40
0.0
 41
1.0
 50
0.0
 71
     0
 42
0.2
  3
txt
  4
bigfont.shx
  0
STYLE
  5
26
100
AcDbSymbolTableRecord
100
AcDbTextStyleTableRecord
  2
TATEGAKI
 70
    68
 40
0.0
 41
1.0
 50
0.0
 71
     0
 42
1.0
  3
txt
  4
bigfont.shx
  0
ENDTAB
  0
TABLE
  2
LAYER
 70
    7
  0
LAYER
  2
_0-0_
 70
   64
 62
    7
  6
CONTINUOUS
  0
LAYER
  2
_1-0_
 70
   64
 62
    7
  6
CONTINUOUS
  0
LAYER
  2
_1-1_
 70
   64
 62
    7
  6
CONTINUOUS
  0
LAYER
  2
_1-2_
 70
   64
 62
    7
  6
CONTINUOUS
  0
LAYER
  2
_1-3_
 70
   64
 62
    7
  6
CONTINUOUS
  0
LAYER
  2
_1-4_
 70
   64
 62
    7
  6
CONTINUOUS
  0
LAYER
  2
ADD_LINE
 70
   64
 62
    7
  6
CONTINUOUS
  0
ENDTAB
  0
ENDSEC
  0
SECTION
  2
BLOCKS
  0
ENDSEC
  0
SECTION
  2
ENTITIES
  0
LINE
  8
_0-0_
  6
CONTINUOUS
 62
    5
 10
6.7567526327597136
 20
280.13513513513516
 11
406.75677325274495
 21
280.13513513513516
  0
LINE
  8
_0-0_
  6
CONTINUOUS
 62
    5
 10
406.75677325274495
 20
10.13513513513513
 11
6.7567526327597136
 21
10.13513513513513
  0
LINE
  8
_0-0_
  6
CONTINUOUS
 62
    5
 10
406.75677325274495
 20
30.135133073136615
 11
6.7567402607685949
 21
30.135133073136615
  0
LINE
  8
_0-0_
  6
CONTINUOUS
 62
    5
 10
371.75678150073907
 20
10.13513513513513
 11
371.75678150073907
 21
30.135133073136615
  0
LINE
  8
_0-0_
  6
CONTINUOUS
 62
    5
 10
137.02703939901818
 20
30.135133073136615
 11
137.02703939901818
 21
10.13513513513513
  0
LINE
  8
_0-0_
  6
CONTINUOUS
 62
    5
 10
214.86486486486487
 20
30.135133073136615
 11
214.86486486486487
 21
10.13513513513513
  0
LINE
  8
_0-0_
  6
CONTINUOUS
 62
    5
 10
137.02703939901818
 20
20.135134104135886
 11
214.86486486486487
 21
20.135134104135886
  0
LINE
  8
_0-0_
  6
CONTINUOUS
 62
    5
 10
396.48648648648651
 20
25.945945945945951
 11
383.91891891891896
 21
13.378379924877265
  0
LINE
  8
ADD_LINE
  6
DOT
 62
    5
 10
224.59459459459461
 20
33.243243243243242
 11
224.59459459459461
 21
4.8648644782401504
  0
LINE
  8
_1-0_
  6
CONTINUOUS
 62
    7
 10
47.774753055057005
 20
110.45587488122889
 11
46.297438337996198
 21
113.73879510003168
  0
LINE
  8
_1-0_
  6
CONTINUOUS
 62
    7
 10
46.297438337996198
 20
113.73879510003168
 11
50.674661172402864
 21
115.70853980811867
  0
LINE
  8
_1-0_
  6
CONTINUOUS
 62
    7
 10
50.674661172402864
 20
115.70853980811867
 11
52.151975889463699
 21
112.42561958931589
  0
LINE
  8
_1-0_
  6
CONTINUOUS
 62
    7
 10
52.151975889463699
 20
112.42561958931589
 11
47.774753055057005
 21
110.45587488122889
  0
LINE
  8
_1-0_
  6
CONTINUOUS
 62
    7
 10
46.297438337996198
 20
113.73879510003168
 11
52.151975889463699
 21
112.42561958931589
  0
LINE
  8
_1-0_
  6
CONTINUOUS
 62
    7
 10
98.094573149809975
 20
137.04750267235011
 11
99.571887866870782
 21
133.76458245354729
  0
LINE
  8
_1-0_
  6
CONTINUOUS
 62
    7
 10
99.571887866870782
 20
133.76458245354729
 11
95.194652660472983
 21
131.79483774546031
  0
LINE
  8
_1-0_
  6
CONTINUOUS
 62
    7
 10
145.51448512721706
 20
158.38646553658151
 11
146.99179984427789
 21
155.10354531777872
  0
LINE
  8
_1-0_
  6
CONTINUOUS
 62
    7
 10
146.99179984427789
 20
155.10354531777872
 11
142.61456463788008
 21
153.13380060969172
  0
LINE
  8
_1-2_
  6
CONTINUOUS
 62
    3
 10
51.773219752956095
 20
113.46732887061867
 11
53.592768488703541
 21
114.0791485760663
  0
LINE
  8
ADD_LINE
  6
DOT
 62
    7
 10
50.112948031038854
 20
118.71159321552999
 11
49.940259778821797
 21
119.28651964342272
  0
LINE
  8
_1-2_
  6
CONTINUOUS
 62
    3
 10
49.940259778821797
 20
119.28651964342272
 11
50.112948031038854
 21
118.71159321552999
  0
LINE
  8
_1-2_
  6
CONTINUOUS
 62
    3
 10
50.976463524070937
 20
115.83688684411952
 11
51.775793127111484
 21
113.45967060810811
  0
LINE
  8
_1-2_
  6
CONTINUOUS
 62
    3
 10
49.940259778821797
 20
119.28651964342272
 11
51.836960251266902
 21
119.92429578626479
  0
LINE
  8
_1-2_
  6
CONTINUOUS
 62
    3
 10
53.592768488703541
 20
114.0791485760663
 11
51.836960251266902
 21
119.92429578626479
  0
LINE
  8
_1-0_
  6
CONTINUOUS
 62
    7
 10
98.094573149809975
 20
137.04749030035896
 11
99.571887866870782
 21
133.76457008155617
  0
LINE
  8
_1-0_
  6
CONTINUOUS
 62
    7
 10
99.571887866870782
 20
133.76457008155617
 11
95.194652660472983
 21
131.79482537346917
  0
LINE
  8
_1-2_
  6
CONTINUOUS
 62
    3
 10
99.184050688872475
 20
134.8029512972445
 11
100.9982052364865
 21
135.43061952333193
  0
LINE
  8
ADD_LINE
  6
DOT
 62
    7
 10
97.478101575696797
 20
140.03253008868245
 11
97.300365551097983
 21
140.60592238967484
  0
LINE
  8
_1-2_
  6
CONTINUOUS
 62
    3
 10
97.300365551097983
 20
140.60592238967484
 11
97.478101575696797
 21
140.03253008868245
  0
LINE
  8
_1-2_
  6
CONTINUOUS
 62
    3
 10
98.366657978779571
 20
137.16545723580026
 11
99.186698294974661
 21
134.79530540672511
  0
LINE
  8
_1-2_
  6
CONTINUOUS
 62
    3
 10
42.723132984058282
 20
117.06460901208827
 11
43.479519405880495
 21
117.32632611248945
  0
LINE
  8
_1-2_
  6
CONTINUOUS
 62
    3
 10
44.641818484744505
 20
118.57719627586572
 11
98.366657978779571
 21
137.16545723580026
  0
LINE
  8
_1-2_
  6
CONTINUOUS
 62
    3
 10
43.617034087309975
 20
116.88269125448691
 11
43.479519405880495
 21
117.32632611248945
  0
LINE
  8
_1-2_
  6
CONTINUOUS
 62
    3
 10
42.864482982738593
 20
116.60851555901606
 11
42.723132984058282
 21
117.06460901208827
  0
LINE
  8
_1-2_
  6
CONTINUOUS
 62
    3
 10
44.346226872624584
 20
116.91645441828548
 11
43.87348071948901
 21
116.75287195154139
  0
LINE
  8
_1-2_
  6
CONTINUOUS
 62
    3
 10
44.471864442567579
 20
117.16466130437078
 11
44.264881030933282
 21
117.83255087362754
  0
LINE
  8
_1-2_
  6
CONTINUOUS
 62
    3
 10
42.266062143686668
 20
116.19672620618667
 11
42.738833040804479
 21
116.36030867293076
  0
LINE
  8
_1-2_
  6
CONTINUOUS
 62
    3
 10
97.478101575696797
 20
140.03253008868245
 11
40.746002197265625
 21
120.40377230257602
  0
LINE
  8
_1-2_
  6
CONTINUOUS
 62
    3
 10
42.009627883498752
 20
116.32653313714106
 11
40.746002197265625
 21
120.40377230257602
  0
LINE
  8
_1-2_
  6
CONTINUOUS
 62
    3
 10
100.9982052364865
 20
135.43061952333193
 11
99.191449139569258
 21
141.26022751266893
  0
LINE
  8
_1-2_
  6
CONTINUOUS
 62
    7
 10
40.746002197265625
 20
120.40377230257602
 11
36.03759353225297
 21
134.01224497202281
  0
LINE
  8
_1-0_
  6
CONTINUOUS
 62
    7
 10
95.194652660472983
 20
131.79483774546031
 11
93.734485523120782
 21
135.03968934755068
  0
LINE
  8
_1-0_
  6
CONTINUOUS
 62
    7
 10
95.194652660472983
 20
131.79482537346917
 11
93.734460779138516
 21
135.03967697555956
  0
LINE
  8
_1-0_
  6
CONTINUOUS
 62
    7
 10
93.734485523120782
 20
135.03968934755068
 11
99.571887866870782
 21
133.76458245354729
  0
LINE
  8
_1-2_
  6
CONTINUOUS
 62
    7
 10
51.836960251266902
 20
119.92429578626479
 11
51.492895177892734
 21
120.94759554476352
  0
LINE
  8
_1-0_
  6
CONTINUOUS
 62
    7
 10
49.940259778821797
 20
119.28651964342272
 11
49.634448902027032
 21
120.30459842166385
  0
LINE
  8
_1-0_
  6
CONTINUOUS
 62
    7
 10
145.51448512721706
 20
158.38646553658151
 11
146.99179984427789
 21
155.10354531777872
  0
LINE
  8
_1-0_
  6
CONTINUOUS
 62
    7
 10
146.99179984427789
 20
155.10354531777872
 11
142.61456463788008
 21
153.13380060969172
  0
LINE
  8
_1-0_
  6
CONTINUOUS
 62
    7
 10
145.51448512721706
 20
158.38645316459039
 11
146.99179984427789
 21
155.10353294578761
  0
LINE
  8
_1-0_
  6
CONTINUOUS
 62
    7
 10
146.99179984427789
 20
155.10353294578761
 11
142.61456463788008
 21
153.1337882377006
  0
LINE
  8
_1-2_
  6
CONTINUOUS
 62
    3
 10
146.60396266627956
 20
156.14191416147594
 11
148.41811721389359
 21
156.76958238756336
  0
LINE
  8
_1-2_
  6
CONTINUOUS
 62
    3
 10
144.72027752850508
 20
161.94488525390625
 11
144.89801355310388
 21
161.37149295291385
  0
LINE
  8
_1-2_
  6
CONTINUOUS
 62
    3
 10
145.78656995618667
 20
158.50442010003169
 11
146.60661027238177
 21
156.13426827095651
  0
LINE
  8
_1-2_
  6
CONTINUOUS
 62
    3
 10
90.143044961465378
 20
138.40357187631969
 11
90.899443755278725
 21
138.66528897672086
  0
LINE
  8
_1-2_
  6
CONTINUOUS
 62
    3
 10
92.061718090160483
 20
139.91615914009714
 11
145.78656995618667
 21
158.50442010003169
  0
LINE
  8
_1-2_
  6
CONTINUOUS
 62
    3
 10
91.036946064717071
 20
138.22165411871833
 11
90.899443755278725
 21
138.66528897672086
  0
LINE
  8
_1-2_
  6
CONTINUOUS
 62
    3
 10
90.284407332136823
 20
137.94747842324747
 11
90.143044961465378
 21
138.40357187631969
  0
LINE
  8
_1-2_
  6
CONTINUOUS
 62
    3
 10
91.766126478040547
 20
138.2554172825169
 11
91.29339269689612
 21
138.09183481577281
  0
LINE
  8
_1-2_
  6
CONTINUOUS
 62
    3
 10
91.891776419974661
 20
138.50362416860222
 11
91.684793008340378
 21
139.17151373785896
  0
LINE
  8
_1-2_
  6
CONTINUOUS
 62
    3
 10
89.68597412109375
 20
137.53568907041807
 11
90.158757390202709
 21
137.69927153716216
  0
LINE
  8
_1-2_
  6
CONTINUOUS
 62
    3
 10
144.89801355310388
 20
161.37149295291385
 11
88.165926546663854
 21
141.74273516680745
  0
LINE
  8
_1-2_
  6
CONTINUOUS
 62
    3
 10
89.429552232896967
 20
137.66549600137247
 11
88.165926546663854
 21
141.74273516680745
  0
LINE
  8
_1-2_
  6
CONTINUOUS
 62
    3
 10
148.41811721389359
 20
156.76958238756336
 11
146.61136111697635
 21
162.59919037690034
  0
LINE
  8
_1-2_
  6
CONTINUOUS
 62
    7
 10
88.165926546663854
 20
141.74273516680745
 11
83.457493137668919
 21
155.35120783625422
  0
LINE
  8
_1-0_
  6
CONTINUOUS
 62
    7
 10
142.61456463788008
 20
153.13380060969172
 11
141.15439750052789
 21
156.37865221178211
  0
LINE
  8
_1-0_
  6
CONTINUOUS
 62
    7
 10
142.61456463788008
 20
153.1337882377006
 11
141.15437275654563
 21
156.37863983979096
  0
LINE
  8
_1-0_
  6
CONTINUOUS
 62
    7
 10
141.15437275654563
 20
156.37863983979096
 11
145.48590582770271
 21
158.37343782991977
  0
LINE
  8
_1-0_
  6
CONTINUOUS
 62
    7
 10
141.15439750052789
 20
156.37865221178211
 11
146.99179984427789
 21
155.10354531777872
  0
LINE
  8
_1-0_
  6
CONTINUOUS
 62
    7
 10
192.93442184860643
 20
179.72544077280406
 11
194.41173656566724
 21
176.44250818201016
  0
LINE
  8
_1-0_
  6
CONTINUOUS
 62
    7
 10
194.41173656566724
 20
176.44250818201016
 11
190.03450135926943
 21
174.47276347392315
  0
LINE
  8
_1-0_
  6
CONTINUOUS
 62
    7
 10
192.93442184860643
 20
179.7254160288218
 11
194.41173656566724
 21
176.44250818201016
  0
LINE
  8
_1-2_
  6
CONTINUOUS
 62
    3
 10
194.02389938766893
 20
177.48086465371622
 11
195.83805393528294
 21
178.10854525179477
  0
LINE
  8
ADD_LINE
  6
DOT
 62
    7
 10
192.31795027449326
 20
182.71045581714529
 11
192.14021424989443
 21
183.28384811813768
  0
LINE
  8
_1-2_
  6
CONTINUOUS
 62
    3
 10
192.14021424989443
 20
183.28384811813768
 11
192.31795027449326
 21
182.71045581714529
  0
LINE
  8
_1-2_
  6
CONTINUOUS
 62
    3
 10
193.20650667757602
 20
179.84337059227198
 11
194.02654699377112
 21
177.47324350717906
  0
LINE
  8
_1-2_
  6
CONTINUOUS
 62
    3
 10
137.56298168285474
 20
159.74253474055109
 11
138.31935573268581
 21
160.00425184095229
  0
LINE
  8
_1-2_
  6
CONTINUOUS
 62
    3
 10
139.48167955553211
 20
161.25512200432857
 11
193.20650667757602
 21
179.84337059227198
  0
LINE
  8
_1-2_
  6
CONTINUOUS
 62
    3
 10
138.45688278610643
 20
159.56061698294977
 11
138.31935573268581
 21
160.00425184095229
  0
LINE
  8
_1-2_
  6
CONTINUOUS
 62
    3
 10
137.70431930954393
 20
159.28644128747891
 11
137.56298168285474
 21
159.74253474055109
  0
LINE
  8
_1-2_
  6
CONTINUOUS
 62
    3
 10
139.18608794341216
 20
159.59438014674831
 11
138.71332941828547
 21
159.43079768000422
  0
LINE
  8
_1-2_
  6
CONTINUOUS
 62
    3
 10
139.31171314136404
 20
159.84258703283362
 11
139.10472972972974
 21
160.51047660209039
  0
LINE
  8
_1-2_
  6
CONTINUOUS
 62
    3
 10
137.10591084248313
 20
158.87465193464951
 11
137.57866936760979
 21
159.03823440139359
  0
LINE
  8
_1-2_
  6
CONTINUOUS
 62
    3
 10
136.84946421030406
 20
159.00445886560388
 11
135.58583852407097
 21
163.08169803103885
  0
LINE
  8
_1-2_
  6
CONTINUOUS
 62
    3
 10
192.14021424989443
 20
183.28384811813768
 11
194.03129783836573
 21
183.93815324113177
  0
LINE
  8
_1-2_
  6
CONTINUOUS
 62
    7
 10
135.58583852407097
 20
163.08169803103885
 11
130.87745460304055
 21
176.69017070048565
  0
LINE
  8
_1-2_
  6
CONTINUOUS
 62
    7
 10
189.51905946473818
 20
196.97961755701016
 11
130.87745460304055
 21
176.69017070048565
  0
LINE
  8
_1-2_
  6
CONTINUOUS
 62
    7
 10
194.03129783836573
 20
183.93815324113177
 11
189.51905946473818
 21
196.97961755701016
  0
LINE
  8
_1-0_
  6
CONTINUOUS
 62
    7
 10
190.03450135926943
 20
174.47276347392315
 11
188.57433422191724
 21
177.71761507601352
  0
LINE
  8
_1-0_
  6
CONTINUOUS
 62
    7
 10
190.03450135926943
 20
174.47273872994089
 11
188.57430947793497
 21
177.71761507601352
  0
LINE
  8
_1-0_
  6
CONTINUOUS
 62
    7
 10
188.57433422191724
 20
177.71761507601352
 11
194.41173656566724
 21
176.44250818201016
  0
LINE
  8
_1-2_
  6
CONTINUOUS
 62
    7
 10
84.981524493243242
 20
150.9463830896326
 11
36.03759353225297
 21
134.01224497202281
  0
LINE
  8
_1-2_
  6
CONTINUOUS
 62
    7
 10
99.191449139569258
 20
141.26022751266893
 11
98.84451376425254
 21
142.26292790593328
  0
LINE
  8
_1-2_
  6
CONTINUOUS
 62
    3
 10
97.300365551097983
 20
140.60592238967484
 11
99.191473883551524
 21
141.26022751266893
  0
LINE
  8
ADD_LINE
  6
DOT
 62
    7
 10
100.9982052364865
 20
135.43061952333193
 11
99.191473883551524
 21
141.26022751266893
  0
LINE
  8
_1-2_
  6
CONTINUOUS
 62
    7
 10
97.300365551097983
 20
140.60592238967484
 11
96.986092232369089
 21
141.61994315482477
  0
LINE
  8
ADD_LINE
  6
DOT
 62
    7
 10
148.41811721389359
 20
156.76958238756336
 11
146.61138586095862
 21
162.59919037690034
  0
LINE
  8
_1-2_
  6
CONTINUOUS
 62
    3
 10
144.72027752850508
 20
161.94488525390625
 11
146.61138586095862
 21
162.59919037690034
  0
LINE
  8
_1-2_
  6
CONTINUOUS
 62
    7
 10
132.4014612146326
 20
172.28534595386404
 11
83.457493137668919
 21
155.35120783625422
  0
LINE
  8
_1-2_
  6
CONTINUOUS
 62
    7
 10
146.61136111697635
 20
162.59919037690034
 11
146.26442574165964
 21
163.60189077016472
  0
LINE
  8
_1-0_
  6
CONTINUOUS
 62
    7
 10
188.57430947793497
 20
177.71761507601352
 11
192.93434761665964
 21
179.72553974873313
  0
LINE
  8
_1-0_
  6
CONTINUOUS
 62
    7
 10
192.93434761665964
 20
179.72553974873313
 11
194.41171182168497
 21
176.44250818201016
  0
LINE
  8
_1-0_
  6
CONTINUOUS
 62
    7
 10
194.41171182168497
 20
176.44250818201016
 11
190.05669671135982
 21
174.4827600427576
  0
LINE
  8
_1-0_
  6
CONTINUOUS
 62
    7
 10
190.05669671135982
 20
174.4827600427576
 11
190.03447661528716
 21
174.47276347392315
  0
LINE
  8
_1-0_
  6
CONTINUOUS
 62
    7
 10
93.734460779138516
 20
135.03967697555956
 11
98.094548405827709
 21
137.04761402027029
  0
LINE
  8
_1-3_
  6
CONTINUOUS
 62
    7
 10
121.71837059227197
 20
64.882210396431589
 11
125.77051935969173
 21
64.882210396431589
  0
LINE
  8
_1-3_
  6
CONTINUOUS
 62
    7
 10
125.77051935969173
 20
70.654338114970443
 11
119.61748277818835
 21
70.654338114970443
  0
LINE
  8
_1-3_
  6
CONTINUOUS
 62
    7
 10
125.77051935969173
 20
76.825202735694688
 11
117.37147150812923
 21
76.825202735694688
  0
LINE
  8
_1-3_
  6
CONTINUOUS
 62
    7
 10
125.77051935969173
 20
82.767519564241979
 11
115.20864950644004
 21
82.767519564241979
  0
LINE
  8
_1-3_
  6
CONTINUOUS
 62
    7
 10
74.27215576171875
 20
141.42857319599875
 11
64.12578685863599
 21
169.30545291385135
  0
LINE
  8
_1-3_
  6
CONTINUOUS
 62
    7
 10
64.12578685863599
 20
169.30545291385135
 11
62.851917163745782
 21
169.30545291385135
  0
LINE
  8
_1-0_
  6
CONTINUOUS
 62
    7
 10
26.702344739759297
 20
100.97328804634714
 11
190.0594185494088
 21
174.48397249788852
  0
LINE
  8
_1-2_
  6
CONTINUOUS
 62
    3
 10
26.702344739759297
 20
107.67476262273016
 11
50.976463524070937
 21
115.83688684411952
  0
LINE
  8
_1-2_
  6
CONTINUOUS
 62
    3
 10
50.112948031038854
 20
118.71159321552999
 11
26.702344739759297
 21
110.83982725401184
  0
LINE
  8
_1-2_
  6
CONTINUOUS
 62
    7
 10
37.67169849292651
 20
129.72050022434544
 11
26.702344739759297
 21
126.0320756242082
  0
LINE
  8
ADD_LINE
  6
DOT
 62
    7
 10
197.54670014252534
 20
149.43884359823693
 11
197.54670014252534
 21
107.83705840239654
  0
LINE
  8
_1-0_
  6
CONTINUOUS
 62
    7
 10
26.702344739759297
 20
99.218754123997044
 11
197.54670014252534
 21
176.09871529244089
  0
LINE
  8
_1-0_
  6
CONTINUOUS
 62
    7
 10
26.702344739759297
 20
100.31534555796031
 11
197.54670014252534
 21
177.19529435441302
  0
LINE
  8
_1-0_
  6
CONTINUOUS
 62
    7
 10
190.0594185494088
 20
174.48397249788852
 11
197.54670014252534
 21
177.85323684279984
  0
LINE
  8
_1-0_
  6
CONTINUOUS
 62
    7
 10
347.31865960198479
 20
110.45587488122889
 11
348.79597431904563
 21
113.73879510003168
  0
LINE
  8
_1-0_
  6
CONTINUOUS
 62
    7
 10
348.79597431904563
 20
113.73879510003168
 11
344.41873911264781
 21
115.70853980811867
  0
LINE
  8
_1-0_
  6
CONTINUOUS
 62
    7
 10
344.41873911264781
 20
115.70853980811867
 11
342.94142439558703
 21
112.42561958931589
  0
LINE
  8
_1-0_
  6
CONTINUOUS
 62
    7
 10
342.94142439558703
 20
112.42561958931589
 11
347.31865960198479
 21
110.45587488122889
  0
LINE
  8
_1-0_
  6
CONTINUOUS
 62
    7
 10
348.79597431904563
 20
113.73879510003168
 11
342.94142439558703
 21
112.42561958931589
  0
LINE
  8
_1-0_
  6
CONTINUOUS
 62
    7
 10
296.99882713524073
 20
137.04750267235011
 11
295.5215124181799
 21
133.76458245354729
  0
LINE
  8
_1-0_
  6
CONTINUOUS
 62
    7
 10
295.5215124181799
 20
133.76458245354729
 11
299.89874762457771
 21
131.79483774546031
  0
LINE
  8
_1-0_
  6
CONTINUOUS
 62
    7
 10
249.57891515783362
 20
158.38646553658151
 11
248.10160044077281
 21
155.10354531777872
  0
LINE
  8
_1-0_
  6
CONTINUOUS
 62
    7
 10
248.10160044077281
 20
155.10354531777872
 11
252.47883564717063
 21
153.13380060969172
  0
LINE
  8
_1-2_
  6
CONTINUOUS
 62
    3
 10
343.32018053209464
 20
113.46732887061867
 11
341.50063179634714
 21
114.0791485760663
  0
LINE
  8
ADD_LINE
  6
DOT
 62
    7
 10
344.98045225401182
 20
118.71159321552999
 11
345.15314050622891
 21
119.28651964342272
  0
LINE
  8
_1-2_
  6
CONTINUOUS
 62
    3
 10
345.15314050622891
 20
119.28651964342272
 11
344.98045225401182
 21
118.71159321552999
  0
LINE
  8
_1-2_
  6
CONTINUOUS
 62
    3
 10
344.11693676097974
 20
115.83688684411952
 11
343.31760715793922
 21
113.45967060810811
  0
LINE
  8
_1-2_
  6
CONTINUOUS
 62
    3
 10
345.15314050622891
 20
119.28651964342272
 11
343.2564400337838
 21
119.92429578626479
  0
LINE
  8
_1-2_
  6
CONTINUOUS
 62
    3
 10
341.50063179634714
 20
114.0791485760663
 11
343.2564400337838
 21
119.92429578626479
  0
LINE
  8
_1-0_
  6
CONTINUOUS
 62
    7
 10
296.99882713524073
 20
137.04749030035896
 11
295.5215124181799
 21
133.76457008155617
  0
LINE
  8
_1-0_
  6
CONTINUOUS
 62
    7
 10
295.5215124181799
 20
133.76457008155617
 11
299.89874762457771
 21
131.79482537346917
  0
LINE
  8
_1-2_
  6
CONTINUOUS
 62
    3
 10
295.90934959617823
 20
134.8029512972445
 11
294.09519504856422
 21
135.43061952333193
  0
LINE
  8
ADD_LINE
  6
DOT
 62
    7
 10
297.61529870935391
 20
140.03253008868245
 11
297.79303473395271
 21
140.60592238967484
  0
LINE
  8
_1-2_
  6
CONTINUOUS
 62
    3
 10
297.79303473395271
 20
140.60592238967484
 11
297.61529870935391
 21
140.03253008868245
  0
LINE
  8
_1-2_
  6
CONTINUOUS
 62
    3
 10
296.72674230627115
 20
137.16545723580026
 11
295.90670199007604
 21
134.79530540672511
  0
LINE
  8
_1-2_
  6
CONTINUOUS
 62
    3
 10
352.3702673009924
 20
117.06460901208827
 11
351.61386850717906
 21
117.32632611248945
  0
LINE
  8
_1-2_
  6
CONTINUOUS
 62
    3
 10
350.45159417229729
 20
118.57719627586572
 11
296.72674230627115
 21
137.16545723580026
  0
LINE
  8
_1-2_
  6
CONTINUOUS
 62
    3
 10
351.47636619774073
 20
116.88269125448691
 11
351.61386850717906
 21
117.32632611248945
  0
LINE
  8
_1-2_
  6
CONTINUOUS
 62
    3
 10
352.22890493032099
 20
116.60851555901606
 11
352.3702673009924
 21
117.06460901208827
  0
LINE
  8
_1-2_
  6
CONTINUOUS
 62
    3
 10
350.74718578441724
 20
116.91645441828548
 11
351.21991956556167
 21
116.75287195154139
  0
LINE
  8
_1-2_
  6
CONTINUOUS
 62
    3
 10
350.62153584248313
 20
117.16466130437078
 11
350.8285192541174
 21
117.83255087362754
  0
LINE
  8
_1-2_
  6
CONTINUOUS
 62
    3
 10
352.82733814136407
 20
116.19672620618667
 11
352.35455487225511
 21
116.36030867293076
  0
LINE
  8
_1-2_
  6
CONTINUOUS
 62
    3
 10
297.61529870935391
 20
140.03253008868245
 11
354.34738571579396
 21
120.40377230257602
  0
LINE
  8
_1-2_
  6
CONTINUOUS
 62
    3
 10
353.08376002956084
 20
116.32653313714106
 11
354.34738571579396
 21
120.40377230257602
  0
LINE
  8
_1-2_
  6
CONTINUOUS
 62
    3
 10
294.09519504856422
 20
135.43061952333193
 11
295.90195114548146
 21
141.26022751266893
  0
LINE
  8
_1-2_
  6
CONTINUOUS
 62
    7
 10
354.34738571579396
 20
120.40377230257602
 11
359.05581912478885
 21
134.01224497202281
  0
LINE
  8
_1-0_
  6
CONTINUOUS
 62
    7
 10
299.89874762457771
 20
131.79483774546031
 11
301.3589147619299
 21
135.03968934755068
  0
LINE
  8
_1-0_
  6
CONTINUOUS
 62
    7
 10
299.89874762457771
 20
131.79482537346917
 11
301.35893950591219
 21
135.03967697555956
  0
LINE
  8
_1-0_
  6
CONTINUOUS
 62
    7
 10
301.3589147619299
 20
135.03968934755068
 11
295.5215124181799
 21
133.76458245354729
  0
LINE
  8
_1-2_
  6
CONTINUOUS
 62
    7
 10
343.2564400337838
 20
119.92429578626479
 11
343.60050510715797
 21
120.94759554476352
  0
LINE
  8
_1-0_
  6
CONTINUOUS
 62
    7
 10
345.15314050622891
 20
119.28651964342272
 11
345.45895138302365
 21
120.30459842166385
  0
LINE
  8
_1-0_
  6
CONTINUOUS
 62
    7
 10
249.57891515783362
 20
158.38646553658151
 11
248.10160044077281
 21
155.10354531777872
  0
LINE
  8
_1-0_
  6
CONTINUOUS
 62
    7
 10
248.10160044077281
 20
155.10354531777872
 11
252.47883564717063
 21
153.13380060969172
  0
LINE
  8
_1-0_
  6
CONTINUOUS
 62
    7
 10
249.57891515783362
 20
158.38645316459039
 11
248.10160044077281
 21
155.10353294578761
  0
LINE
  8
_1-0_
  6
CONTINUOUS
 62
    7
 10
248.10160044077281
 20
155.10353294578761
 11
252.47883564717063
 21
153.1337882377006
  0
LINE
  8
_1-2_
  6
CONTINUOUS
 62
    3
 10
248.48943761877112
 20
156.14191416147594
 11
246.67528307115711
 21
156.76958238756336
  0
LINE
  8
ADD_LINE
  6
DOT
 62
    7
 10
250.1953867319468
 20
161.37149295291385
 11
250.37312275654563
 21
161.94488525390625
  0
LINE
  8
_1-2_
  6
CONTINUOUS
 62
    3
 10
250.37312275654563
 20
161.94488525390625
 11
250.1953867319468
 21
161.37149295291385
  0
LINE
  8
_1-2_
  6
CONTINUOUS
 62
    3
 10
249.30683032886404
 20
158.50442010003169
 11
248.48679001266893
 21
156.13426827095651
  0
LINE
  8
_1-2_
  6
CONTINUOUS
 62
    3
 10
304.95035532358531
 20
138.40357187631969
 11
304.19395652977198
 21
138.66528897672086
  0
LINE
  8
_1-2_
  6
CONTINUOUS
 62
    3
 10
303.03168219489021
 20
139.91615914009714
 11
249.30683032886404
 21
158.50442010003169
  0
LINE
  8
_1-2_
  6
CONTINUOUS
 62
    3
 10
304.05645422033365
 20
138.22165411871833
 11
304.19395652977198
 21
138.66528897672086
  0
LINE
  8
_1-2_
  6
CONTINUOUS
 62
    3
 10
304.80899295291385
 20
137.94747842324747
 11
304.95035532358531
 21
138.40357187631969
  0
LINE
  8
_1-2_
  6
CONTINUOUS
 62
    3
 10
303.32727380701016
 20
138.2554172825169
 11
303.80000758815459
 21
138.09183481577281
  0
LINE
  8
_1-2_
  6
CONTINUOUS
 62
    3
 10
303.20162386507604
 20
138.50362416860222
 11
303.40860727671031
 21
139.17151373785896
  0
LINE
  8
_1-2_
  6
CONTINUOUS
 62
    3
 10
305.40742616395693
 20
137.53568907041807
 11
304.93464289484797
 21
137.69927153716216
  0
LINE
  8
_1-2_
  6
CONTINUOUS
 62
    3
 10
250.1953867319468
 20
161.37149295291385
 11
306.92747373838682
 21
141.74273516680745
  0
LINE
  8
_1-2_
  6
CONTINUOUS
 62
    3
 10
305.66384805215375
 20
137.66549600137247
 11
306.92747373838682
 21
141.74273516680745
  0
LINE
  8
_1-2_
  6
CONTINUOUS
 62
    3
 10
246.67528307115711
 20
156.76958238756336
 11
248.48203916807435
 21
162.59919037690034
  0
LINE
  8
_1-2_
  6
CONTINUOUS
 62
    7
 10
306.92747373838682
 20
141.74273516680745
 11
311.63590714738177
 21
155.35120783625422
  0
LINE
  8
_1-0_
  6
CONTINUOUS
 62
    7
 10
252.47883564717063
 20
153.13380060969172
 11
253.93900278452281
 21
156.37865221178211
  0
LINE
  8
_1-0_
  6
CONTINUOUS
 62
    7
 10
252.47883564717063
 20
153.1337882377006
 11
253.93902752850508
 21
156.37863983979096
  0
LINE
  8
_1-0_
  6
CONTINUOUS
 62
    7
 10
253.93902752850508
 20
156.37863983979096
 11
249.607494457348
 21
158.37343782991977
  0
LINE
  8
_1-0_
  6
CONTINUOUS
 62
    7
 10
253.93900278452281
 20
156.37865221178211
 11
248.10160044077281
 21
155.10354531777872
  0
LINE
  8
_1-0_
  6
CONTINUOUS
 62
    7
 10
202.15897843644427
 20
179.72544077280406
 11
200.68166371938347
 21
176.44250818201016
  0
LINE
  8
_1-0_
  6
CONTINUOUS
 62
    7
 10
200.68166371938347
 20
176.44250818201016
 11
205.05889892578125
 21
174.47276347392315
  0
LINE
  8
_1-0_
  6
CONTINUOUS
 62
    7
 10
202.15897843644427
 20
179.7254160288218
 11
200.68166371938347
 21
176.44250818201016
  0
LINE
  8
_1-2_
  6
CONTINUOUS
 62
    3
 10
201.06950089738177
 20
177.48086465371622
 11
199.25534634976773
 21
178.10854525179477
  0
LINE
  8
ADD_LINE
  6
DOT
 62
    7
 10
202.77545001055745
 20
182.71045581714529
 11
202.95318603515625
 21
183.28384811813768
  0
LINE
  8
_1-2_
  6
CONTINUOUS
 62
    3
 10
202.95318603515625
 20
183.28384811813768
 11
202.77545001055745
 21
182.71045581714529
  0
LINE
  8
_1-2_
  6
CONTINUOUS
 62
    3
 10
201.88689360747466
 20
179.84337059227198
 11
201.06685329127959
 21
177.47324350717906
  0
LINE
  8
_1-2_
  6
CONTINUOUS
 62
    3
 10
257.53041860219594
 20
159.74253474055109
 11
256.7740445523649
 21
160.00425184095229
  0
LINE
  8
_1-2_
  6
CONTINUOUS
 62
    3
 10
255.61172072951859
 20
161.25512200432857
 11
201.88689360747466
 21
179.84337059227198
  0
LINE
  8
_1-2_
  6
CONTINUOUS
 62
    3
 10
256.63651749894427
 20
159.56061698294977
 11
256.7740445523649
 21
160.00425184095229
  0
LINE
  8
_1-2_
  6
CONTINUOUS
 62
    3
 10
257.38908097550677
 20
159.28644128747891
 11
257.53041860219594
 21
159.74253474055109
  0
LINE
  8
_1-2_
  6
CONTINUOUS
 62
    3
 10
255.90731234163852
 20
159.59438014674831
 11
256.38007086676521
 21
159.43079768000422
  0
LINE
  8
_1-2_
  6
CONTINUOUS
 62
    3
 10
255.78168714368667
 20
159.84258703283362
 11
255.98867055532097
 21
160.51047660209039
  0
LINE
  8
_1-2_
  6
CONTINUOUS
 62
    3
 10
257.98748944256761
 20
158.87465193464951
 11
257.51473091744089
 21
159.03823440139359
  0
LINE
  8
_1-2_
  6
CONTINUOUS
 62
    3
 10
202.77545001055745
 20
182.71045581714529
 11
259.50756176097974
 21
163.08169803103885
  0
LINE
  8
_1-2_
  6
CONTINUOUS
 62
    3
 10
202.95318603515625
 20
183.28384811813768
 11
201.06210244668497
 21
183.93815324113177
  0
LINE
  8
_1-2_
  6
CONTINUOUS
 62
    3
 10
199.25534634976773
 20
178.10854525179477
 11
201.06210244668497
 21
183.93815324113177
  0
LINE
  8
_1-2_
  6
CONTINUOUS
 62
    7
 10
259.50756176097974
 20
163.08169803103885
 11
264.21594568201016
 21
176.69017070048565
  0
LINE
  8
_1-2_
  6
CONTINUOUS
 62
    7
 10
205.5743408203125
 20
196.97961755701016
 11
264.21594568201016
 21
176.69017070048565
  0
LINE
  8
_1-2_
  6
CONTINUOUS
 62
    7
 10
201.06210244668497
 20
183.93815324113177
 11
205.5743408203125
 21
196.97961755701016
  0
LINE
  8
_1-0_
  6
CONTINUOUS
 62
    7
 10
205.05889892578125
 20
174.47276347392315
 11
206.51906606313347
 21
177.71761507601352
  0
LINE
  8
_1-0_
  6
CONTINUOUS
 62
    7
 10
205.05889892578125
 20
174.47273872994089
 11
206.51909080711573
 21
177.71761507601352
  0
LINE
  8
_1-0_
  6
CONTINUOUS
 62
    7
 10
206.51906606313347
 20
177.71761507601352
 11
200.68166371938347
 21
176.44250818201016
  0
LINE
  8
_1-2_
  6
CONTINUOUS
 62
    7
 10
310.11187579180745
 20
150.9463830896326
 11
359.05581912478885
 21
134.01224497202281
  0
LINE
  8
_1-2_
  6
CONTINUOUS
 62
    7
 10
295.90195114548146
 20
141.26022751266893
 11
296.24888652079818
 21
142.26292790593328
  0
LINE
  8
_1-2_
  6
CONTINUOUS
 62
    3
 10
297.79303473395271
 20
140.60592238967484
 11
295.90192640149917
 21
141.26022751266893
  0
LINE
  8
ADD_LINE
  6
DOT
 62
    7
 10
294.09519504856422
 20
135.43061952333193
 11
295.90192640149917
 21
141.26022751266893
  0
LINE
  8
_1-2_
  6
CONTINUOUS
 62
    7
 10
297.79303473395271
 20
140.60592238967484
 11
298.10730805268162
 21
141.61994315482477
  0
LINE
  8
ADD_LINE
  6
DOT
 62
    7
 10
246.67528307115711
 20
156.76958238756336
 11
248.48201442409209
 21
162.59919037690034
  0
LINE
  8
_1-2_
  6
CONTINUOUS
 62
    3
 10
250.37312275654563
 20
161.94488525390625
 11
248.48201442409209
 21
162.59919037690034
  0
LINE
  8
_1-2_
  6
CONTINUOUS
 62
    7
 10
262.69193907041807
 20
172.28534595386404
 11
311.63590714738177
 21
155.35120783625422
  0
LINE
  8
_1-2_
  6
CONTINUOUS
 62
    7
 10
248.48203916807435
 20
162.59919037690034
 11
248.82897454339107
 21
163.60189077016472
  0
LINE
  8
_1-0_
  6
CONTINUOUS
 62
    7
 10
206.51909080711573
 20
177.71761507601352
 11
202.15905266839107
 21
179.72553974873313
  0
LINE
  8
_1-0_
  6
CONTINUOUS
 62
    7
 10
202.15905266839107
 20
179.72553974873313
 11
200.68168846336573
 21
176.44250818201016
  0
LINE
  8
_1-0_
  6
CONTINUOUS
 62
    7
 10
200.68168846336573
 20
176.44250818201016
 11
205.03670357369089
 21
174.4827600427576
  0
LINE
  8
_1-0_
  6
CONTINUOUS
 62
    7
 10
205.03670357369089
 20
174.4827600427576
 11
205.05892366976352
 21
174.47276347392315
  0
LINE
  8
_1-0_
  6
CONTINUOUS
 62
    7
 10
301.35893950591219
 20
135.03967697555956
 11
296.99885187922297
 21
137.04761402027029
  0
LINE
  8
_1-3_
  6
CONTINUOUS
 62
    7
 10
320.82124452333193
 20
141.42857319599875
 11
330.96761342641469
 21
169.30545291385135
  0
LINE
  8
_1-3_
  6
CONTINUOUS
 62
    7
 10
330.96761342641469
 20
169.30545291385135
 11
332.2414831213049
 21
169.30545291385135
  0
LINE
  8
_1-0_
  6
CONTINUOUS
 62
    7
 10
368.39105554529141
 20
100.97328804634714
 11
205.0339817356419
 21
174.48397249788852
  0
LINE
  8
_1-2_
  6
CONTINUOUS
 62
    3
 10
368.39105554529141
 20
107.67476262273016
 11
344.11693676097974
 21
115.83688684411952
  0
LINE
  8
_1-2_
  6
CONTINUOUS
 62
    3
 10
344.98045225401182
 20
118.71159321552999
 11
368.39105554529141
 21
110.83982725401184
  0
LINE
  8
_1-2_
  6
CONTINUOUS
 62
    7
 10
357.42170179212417
 20
129.72050022434544
 11
368.39105554529141
 21
126.0320756242082
  0
LINE
  8
ADD_LINE
  6
DOT
 62
    7
 10
197.54670014252534
 20
181.17630417282518
 11
197.54670014252534
 21
149.43884359823693
  0
LINE
  8
ADD_LINE
  6
DOT
 62
    7
 10
197.54670014252534
 20
181.17630417282518
 11
197.54670014252534
 21
218.48926441089529
  0
LINE
  8
ADD_LINE
  6
DOT
 62
    7
 10
197.54670014252534
 20
149.43884359823693
 11
197.54670014252534
 21
107.83705840239654
  0
LINE
  8
_1-0_
  6
CONTINUOUS
 62
    7
 10
368.39105554529141
 20
99.218754123997044
 11
197.54670014252534
 21
176.09871529244089
  0
LINE
  8
_1-0_
  6
CONTINUOUS
 62
    7
 10
368.39105554529141
 20
100.31534555796031
 11
197.54670014252534
 21
177.19529435441302
  0
LINE
  8
_1-0_
  6
CONTINUOUS
 62
    7
 10
205.0339817356419
 20
174.48397249788852
 11
197.54670014252534
 21
177.85323684279984
  0
LINE
  8
_1-1_
  6
CONTINUOUS
 62
    7
 10
216.62574561866555
 20
193.1140879038218
 11
224.48621595228042
 21
192.1141340925887
  0
LINE
  8
_1-1_
  6
CONTINUOUS
 62
    7
 10
170.48622337547511
 20
192.11408460462417
 11
178.34670608108109
 21
193.1140879038218
  0
LINE
  8
_1-1_
  6
CONTINUOUS
 62
    2
 10
197.54670014252534
 20
215.11403676625847
 11
197.80027647276182
 21
214.98071618982266
  0
LINE
  8
_1-1_
  6
CONTINUOUS
 62
    2
 10
197.80027647276182
 20
214.98071618982266
 11
198.12584541939401
 21
215.3062727644637
  0
LINE
  8
_1-1_
  6
CONTINUOUS
 62
    2
 10
198.12584541939401
 20
215.3062727644637
 11
198.45142673801732
 21
215.46906342377534
  0
LINE
  8
_1-1_
  6
CONTINUOUS
 62
    2
 10
198.45142673801732
 20
215.46906342377534
 11
198.77699568464951
 21
215.63185408308701
  0
LINE
  8
_1-1_
  6
CONTINUOUS
 62
    2
 10
198.77699568464951
 20
215.63185408308701
 11
198.45142673801732
 21
215.63185408308701
  0
LINE
  8
_1-1_
  6
CONTINUOUS
 62
    2
 10
198.45142673801732
 20
215.63185408308701
 11
198.12584541939401
 21
215.71326178473396
  0
LINE
  8
_1-1_
  6
CONTINUOUS
 62
    2
 10
198.12584541939401
 20
215.71326178473396
 11
197.80027647276182
 21
215.63185408308701
  0
LINE
  8
_1-1_
  6
CONTINUOUS
 62
    2
 10
197.80027647276182
 20
215.63185408308701
 11
197.47469515413852
 21
215.38768046611065
  0
LINE
  8
_1-1_
  6
CONTINUOUS
 62
    2
 10
197.47469515413852
 20
215.38768046611065
 11
197.47469515413852
 21
214.98071618982266
  0
LINE
  8
_1-1_
  6
CONTINUOUS
 62
    2
 10
197.47469515413852
 20
214.98071618982266
 11
197.54670014252534
 21
215.11403676625847
  0
LINE
  8
_1-1_
  6
CONTINUOUS
 62
    2
 10
197.47469515413852
 20
215.114086254223
 11
197.06771850585937
 21
215.46906342377534
  0
LINE
  8
_1-1_
  6
CONTINUOUS
 62
    2
 10
197.06771850585937
 20
215.46906342377534
 11
196.74214955922722
 21
215.63185408308701
  0
LINE
  8
_1-1_
  6
CONTINUOUS
 62
    2
 10
196.74214955922722
 20
215.63185408308701
 11
196.41656824060391
 21
215.71326178473396
  0
LINE
  8
_1-1_
  6
CONTINUOUS
 62
    2
 10
196.41656824060391
 20
215.71326178473396
 11
196.09099929397172
 21
215.79464474239867
  0
LINE
  8
_1-1_
  6
CONTINUOUS
 62
    2
 10
196.09099929397172
 20
215.79464474239867
 11
195.76541797534841
 21
215.79464474239867
  0
LINE
  8
_1-1_
  6
CONTINUOUS
 62
    2
 10
195.76541797534841
 20
215.79464474239867
 11
196.09099929397172
 21
215.63185408308701
  0
LINE
  8
_1-1_
  6
CONTINUOUS
 62
    2
 10
196.09099929397172
 20
215.63185408308701
 11
196.49796357025971
 21
215.55047112542232
  0
LINE
  8
_1-1_
  6
CONTINUOUS
 62
    2
 10
196.49796357025971
 20
215.55047112542232
 11
196.82354488888302
 21
215.38768046611065
  0
LINE
  8
_1-1_
  6
CONTINUOUS
 62
    2
 10
196.82354488888302
 20
215.38768046611065
 11
197.23050916517104
 21
215.14348210515203
  0
LINE
  8
_1-1_
  6
CONTINUOUS
 62
    2
 10
197.23050916517104
 20
215.14348210515203
 11
197.47469515413852
 21
215.114086254223
  0
LINE
  8
_1-1_
  6
CONTINUOUS
 62
    7
 10
96.461996130041186
 20
134.27354142472552
 11
121.71837059227197
 21
64.882210396431589
  0
LINE
  8
_1-1_
  6
CONTINUOUS
 62
    7
 10
188.59021985853042
 20
211.4682336755701
 11
176.87583717139992
 21
243.65325102934969
  0
LINE
  8
_1-1_
  6
CONTINUOUS
 62
    7
 10
152.33225642023859
 20
225.61592720650339
 11
167.65030319626268
 21
183.52995176573057
  0
LINE
  8
_1-1_
  6
CONTINUOUS
 62
    7
 10
167.65030319626268
 20
183.52995176573057
 11
185.44714025548987
 21
188.05879335145693
  0
LINE
  8
_1-1_
  6
CONTINUOUS
 62
    7
 10
209.22274202913852
 20
241.4811995222762
 11
215.67567567567568
 21
241.4811995222762
  0
LINE
  8
_1-1_
  6
CONTINUOUS
 62
    7
 10
176.87583717139992
 20
243.65325102934969
 11
171.08108108108109
 21
243.65325102934969
  0
LINE
  8
_1-1_
  6
CONTINUOUS
 62
    7
 10
152.33225642023859
 20
225.61592720650339
 11
146.75675675675677
 21
225.61592720650339
  0
LINE
  8
_1-1_
  6
CONTINUOUS
 62
    7
 10
368.39105554529141
 20
73.339338560362123
 11
197.54668777053422
 21
150.21930591480154
  0
LINE
  8
_1-1_
  6
DASHED1
 62
    7
 10
368.39105554529141
 20
73.84377556878168
 11
197.54670014252534
 21
150.72373673722552
  0
LINE
  8
_1-1_
  6
CONTINUOUS
 62
    7
 10
368.39105554529141
 20
77.725685738228464
 11
197.54668777053422
 21
154.60564690667232
  0
LINE
  8
_1-1_
  6
DASHED1
 62
    7
 10
368.39105554529141
 20
94.766618883287592
 11
197.54670014252534
 21
171.64658005173143
  0
LINE
  8
_1-1_
  6
CONTINUOUS
 62
    7
 10
368.39105554529141
 20
95.271049705711576
 11
197.54670014252534
 21
172.15101087415542
  0
LINE
  8
_1-1_
  6
CONTINUOUS
 62
    7
 10
368.39105554529141
 20
90.884702527845235
 11
197.54670014252534
 21
167.76466988228464
  0
LINE
  8
_1-1_
  6
CONTINUOUS
 62
    7
 10
26.702344739759297
 20
77.725679552232904
 11
197.54668777053422
 21
154.60564690667232
  0
LINE
  8
_1-1_
  6
CONTINUOUS
 62
    7
 10
26.702344739759297
 20
73.339338560362123
 11
197.54668777053422
 21
150.21930591480154
  0
LINE
  8
_1-1_
  6
DASHED1
 62
    7
 10
26.702344739759297
 20
73.843769382786107
 11
197.54670014252534
 21
150.72373673722552
  0
LINE
  8
_1-1_
  6
CONTINUOUS
 62
    7
 10
26.702344739759297
 20
90.884708713840794
 11
197.54670014252534
 21
167.76466988228464
  0
LINE
  8
_1-1_
  6
DASHED1
 62
    7
 10
26.702344739759297
 20
94.766618883287592
 11
197.54670014252534
 21
171.64658005173143
  0
LINE
  8
_1-1_
  6
CONTINUOUS
 62
    7
 10
26.702344739759297
 20
95.271049705711576
 11
197.54670014252534
 21
172.15101087415542
  0
LINE
  8
_1-1_
  6
CONTINUOUS
 62
    7
 10
26.702344739759297
 20
95.485709937843126
 11
26.850384892644115
 21
95.337666691960521
  0
LINE
  8
_1-1_
  6
CONTINUOUS
 62
    7
 10
26.702344739759297
 20
97.748454325907943
 11
28.41090125006599
 21
96.039900908599037
  0
LINE
  8
_1-1_
  6
CONTINUOUS
 62
    7
 10
27.248852704022397
 20
99.464684563714115
 11
29.971411421492292
 21
96.742128939241979
  0
LINE
  8
_1-1_
  6
CONTINUOUS
 62
    7
 10
28.809369061444272
 20
100.16691259435706
 11
31.53192468591638
 21
97.444363155880495
  0
LINE
  8
_1-1_
  6
CONTINUOUS
 62
    7
 10
30.369885418866147
 20
100.86914681099557
 11
33.092444136336042
 21
98.146597372519011
  0
LINE
  8
_1-1_
  6
CONTINUOUS
 62
    7
 10
31.930414148279141
 20
101.57138102763409
 11
34.652954307762343
 21
98.848825403161953
  0
LINE
  8
_1-1_
  6
CONTINUOUS
 62
    7
 10
33.490893389727603
 20
102.27360287228147
 11
36.213464479188673
 21
99.55105343380491
  0
LINE
  8
_1-1_
  6
CONTINUOUS
 62
    7
 10
35.051422119140625
 20
102.97583708891997
 11
37.773977743612761
 21
100.25328146444785
  0
LINE
  8
_1-1_
  6
CONTINUOUS
 62
    7
 10
36.6119384765625
 20
103.67807130555849
 11
39.334487915039063
 21
100.95551568108637
  0
LINE
  8
_1-1_
  6
CONTINUOUS
 62
    7
 10
38.172454833984375
 20
104.38031170819258
 11
40.895007365458724
 21
101.65774989772488
  0
LINE
  8
_1-1_
  6
CONTINUOUS
 62
    7
 10
39.73297119140625
 20
105.08253355283996
 11
42.455517536885026
 21
102.35997792836783
  0
LINE
  8
_1-1_
  6
CONTINUOUS
 62
    7
 10
41.293462804845859
 20
105.78475539748733
 11
44.016030801309114
 21
103.06220595901077
  0
LINE
  8
_1-1_
  6
CONTINUOUS
 62
    7
 10
42.853979162267734
 20
106.48698961412585
 11
45.57653478673987
 21
103.76443398965372
  0
LINE
  8
_1-1_
  6
CONTINUOUS
 62
    7
 10
44.414507891680756
 20
107.18922383076436
 11
47.137044958166172
 21
104.46666820629224
  0
LINE
  8
_1-1_
  6
CONTINUOUS
 62
    7
 10
45.974999505120365
 20
107.89144567541175
 11
48.697548943596928
 21
105.16889005093962
  0
LINE
  8
_1-1_
  6
CONTINUOUS
 62
    7
 10
47.53551586254224
 20
108.59367989205026
 11
50.258059115023229
 21
105.87112426757812
  0
LINE
  8
_1-1_
  6
CONTINUOUS
 62
    7
 10
49.09600747598185
 20
109.29590173669764
 11
51.818569286449531
 21
106.57334611222551
  0
LINE
  8
_1-1_
  6
CONTINUOUS
 62
    7
 10
50.656523833403725
 20
109.99813595333616
 11
53.379067085884714
 21
107.27558032886402
  0
LINE
  8
_1-1_
  6
CONTINUOUS
 62
    7
 10
52.217015446843334
 20
110.70035779798354
 11
54.939577257311015
 21
107.97780217351141
  0
LINE
  8
_1-1_
  6
CONTINUOUS
 62
    7
 10
53.777544176256328
 20
111.40259201462204
 11
56.500087428737345
 21
108.68003639014992
  0
LINE
  8
_1-1_
  6
CONTINUOUS
 62
    7
 10
55.338035789695937
 20
112.10481385926943
 11
58.060591414168073
 21
109.38225823479731
  0
LINE
  8
_1-1_
  6
CONTINUOUS
 62
    7
 10
56.898539775126693
 20
112.80704807590794
 11
59.621101585594374
 21
110.08449245143582
  0
LINE
  8
_1-1_
  6
CONTINUOUS
 62
    7
 10
58.459056132548568
 20
113.50928229254646
 11
61.181611757020704
 21
110.7867142960832
  0
LINE
  8
_1-1_
  6
CONTINUOUS
 62
    7
 10
60.019560117979324
 20
114.21149176520271
 11
62.742115742451432
 21
111.48894851272171
  0
LINE
  8
_1-1_
  6
CONTINUOUS
 62
    7
 10
61.580076475401199
 20
114.91372598184122
 11
64.302619727882188
 21
112.19117035736909
  0
LINE
  8
_1-1_
  6
CONTINUOUS
 62
    7
 10
63.14056808884078
 20
115.61596019847974
 11
65.863123713312916
 21
112.8934045740076
  0
LINE
  8
_1-1_
  6
CONTINUOUS
 62
    7
 10
64.701072074271536
 20
116.31818204312712
 11
67.423627698743672
 21
113.59562641865499
  0
LINE
  8
_1-1_
  6
CONTINUOUS
 62
    7
 10
66.261588431693411
 20
117.02040388777451
 11
68.984131684174429
 21
114.2978606352935
  0
LINE
  8
_1-1_
  6
CONTINUOUS
 62
    7
 10
67.822092417124168
 20
117.72263810441301
 11
70.544648041596304
 21
115.00008247994089
  0
LINE
  8
_1-1_
  6
CONTINUOUS
 62
    7
 10
69.382596402554896
 20
118.42487232105152
 11
72.105152027027032
 21
115.7023166965794
  0
LINE
  8
_1-1_
  6
CONTINUOUS
 62
    7
 10
70.943112759976771
 20
119.12710653769004
 11
73.665668384448907
 21
116.40453854122678
  0
LINE
  8
_1-1_
  6
CONTINUOUS
 62
    7
 10
72.503616745407527
 20
119.82932838233742
 11
75.226172369879635
 21
117.1067727578653
  0
LINE
  8
_1-1_
  6
CONTINUOUS
 62
    7
 10
74.064120730838283
 20
120.53155022698481
 11
76.786676355310391
 21
117.80899460251267
  0
LINE
  8
_1-1_
  6
CONTINUOUS
 62
    7
 10
75.624624716269011
 20
121.23378444362332
 11
78.347180340741147
 21
118.51122881915119
  0
LINE
  8
_1-1_
  6
CONTINUOUS
 62
    7
 10
77.185141073690886
 20
121.93601866026184
 11
79.907684326171875
 21
119.21345066379857
  0
LINE
  8
_1-1_
  6
CONTINUOUS
 62
    7
 10
78.745645059121614
 20
122.63822813291809
 11
81.468194497598176
 21
119.91568488043708
  0
LINE
  8
_1-1_
  6
CONTINUOUS
 62
    7
 10
80.30614904455237
 20
123.34046234955659
 11
83.028704669024492
 21
120.61790672508447
  0
LINE
  8
_1-1_
  6
CONTINUOUS
 62
    7
 10
81.866665401974245
 20
124.0426965661951
 11
84.589208654455234
 21
121.32014094172298
  0
LINE
  8
_1-1_
  6
CONTINUOUS
 62
    7
 10
83.427169387404987
 20
124.74493078283362
 11
86.14971882588155
 21
122.0223751583615
  0
LINE
  8
_1-1_
  6
CONTINUOUS
 62
    7
 10
84.987673372835729
 20
125.447152627481
 11
87.710228997307865
 21
122.72459700300888
  0
LINE
  8
_1-1_
  6
CONTINUOUS
 62
    7
 10
86.548189730257604
 20
126.14938684411952
 11
89.270732982738608
 21
123.42681884765625
  0
LINE
  8
_1-1_
  6
CONTINUOUS
 62
    7
 10
88.108681343697214
 20
126.8516086887669
 11
90.831224596178217
 21
124.12905306429477
  0
LINE
  8
_1-1_
  6
CONTINUOUS
 62
    7
 10
89.669185329127956
 20
127.55384290540542
 11
92.391747139595651
 21
124.83128728093328
  0
LINE
  8
_1-1_
  6
CONTINUOUS
 62
    7
 10
91.229689314558698
 20
128.25606475005279
 11
93.952251125026393
 21
125.53350912558066
  0
LINE
  8
_1-1_
  6
CONTINUOUS
 62
    7
 10
92.790205671980573
 20
128.95828659470018
 11
95.512755110457135
 21
126.23573097022805
  0
LINE
  8
_1-1_
  6
CONTINUOUS
 62
    7
 10
94.350715843406888
 20
129.6605208113387
 11
97.07327146787901
 21
126.93796518686656
  0
LINE
  8
_1-1_
  6
CONTINUOUS
 62
    7
 10
95.911226014833204
 20
130.36275502797722
 11
98.633769267314193
 21
127.64019940350508
  0
LINE
  8
_1-1_
  6
CONTINUOUS
 62
    7
 10
97.471730000263946
 20
131.06497687262458
 11
100.19428562473607
 21
128.34242124815245
  0
LINE
  8
_1-1_
  6
CONTINUOUS
 62
    7
 10
99.032240171690248
 20
131.7672110892631
 11
101.75478961016681
 21
129.04464309279984
  0
LINE
  8
_1-1_
  6
CONTINUOUS
 62
    7
 10
100.59274415712099
 20
132.46943293391047
 11
103.31529359559755
 21
129.74687730943836
  0
LINE
  8
_1-1_
  6
CONTINUOUS
 62
    7
 10
102.15324195655617
 20
133.17166715054898
 11
104.87579758102829
 21
130.44911152607688
  0
LINE
  8
_1-1_
  6
CONTINUOUS
 62
    7
 10
103.71375831397805
 20
133.87388899519638
 11
106.43631393845017
 21
131.15133337072425
  0
LINE
  8
_1-1_
  6
CONTINUOUS
 62
    7
 10
105.27426229940879
 20
134.5761232118349
 11
107.99681792388091
 21
131.85355521537164
  0
LINE
  8
_1-1_
  6
CONTINUOUS
 62
    7
 10
106.83476628483953
 20
135.27834505648227
 11
109.55732190931167
 21
132.55578943201013
  0
LINE
  8
_1-1_
  6
CONTINUOUS
 62
    7
 10
108.39527027027027
 20
135.98057927312078
 11
111.11782589474241
 21
133.25802364864865
  0
LINE
  8
_1-1_
  6
CONTINUOUS
 62
    7
 10
109.95579899968328
 20
136.6828134897593
 11
112.67834225216428
 21
133.96024549329604
  0
LINE
  8
_1-1_
  6
CONTINUOUS
 62
    7
 10
111.51627824113176
 20
137.38502296241555
 11
114.23885860958616
 21
134.66247970993456
  0
LINE
  8
_1-1_
  6
CONTINUOUS
 62
    7
 10
113.07679459855363
 20
138.08725717905406
 11
115.79933785103464
 21
135.36470155458193
  0
LINE
  8
_1-1_
  6
CONTINUOUS
 62
    7
 10
114.63729858398437
 20
138.78949139569258
 11
117.35984183646538
 21
136.06692339922932
  0
LINE
  8
_1-1_
  6
CONTINUOUS
 62
    7
 10
116.19781494140625
 20
139.49171324033995
 11
118.92035819388725
 21
136.76915761586784
  0
LINE
  8
_1-1_
  6
CONTINUOUS
 62
    7
 10
117.75831892683701
 20
140.19393508498734
 11
120.480862179318
 21
137.47137946051521
  0
LINE
  8
_1-1_
  6
CONTINUOUS
 62
    7
 10
119.31882291226775
 20
140.89616930162586
 11
122.04137853673987
 21
138.17361367715372
  0
LINE
  8
_1-1_
  6
CONTINUOUS
 62
    7
 10
120.87932689769849
 20
141.59840351826438
 11
123.60188252217061
 21
138.87584789379224
  0
LINE
  8
_1-1_
  6
CONTINUOUS
 62
    7
 10
122.43984325512037
 20
142.30062536291175
 11
125.16238650760135
 21
139.57806973843961
  0
LINE
  8
_1-1_
  6
CONTINUOUS
 62
    7
 10
124.00034724055111
 20
143.00285957955026
 11
126.7228904930321
 21
140.28029158308701
  0
LINE
  8
_1-1_
  6
CONTINUOUS
 62
    7
 10
125.56086359797298
 20
143.70508142419763
 11
128.28340685045399
 21
140.98252579972552
  0
LINE
  8
_1-1_
  6
CONTINUOUS
 62
    7
 10
127.12134283942146
 20
144.40731564083615
 11
129.84389846389359
 21
141.68474764437289
  0
LINE
  8
_1-1_
  6
CONTINUOUS
 62
    7
 10
128.68187156883445
 20
145.10953748548354
 11
131.40441482131547
 21
142.38698186101141
  0
LINE
  8
_1-1_
  6
CONTINUOUS
 62
    7
 10
130.24236318227409
 20
145.81175933013091
 11
132.9649188067462
 21
143.0892037056588
  0
LINE
  8
_1-1_
  6
CONTINUOUS
 62
    7
 10
131.80287953969597
 20
146.51399354676943
 11
134.52542279217695
 21
143.79143792229729
  0
LINE
  8
_1-1_
  6
CONTINUOUS
 62
    7
 10
133.36338352512669
 20
147.21622776340794
 11
136.08593914959883
 21
144.49367213893581
  0
LINE
  8
_1-1_
  6
CONTINUOUS
 62
    7
 10
134.92389988254857
 20
147.91846198004646
 11
137.64644313502956
 21
145.1958939835832
  0
LINE
  8
_1-1_
  6
CONTINUOUS
 62
    7
 10
136.48440386797932
 20
148.62068382469386
 11
139.20695949245143
 21
145.89812820022172
  0
LINE
  8
_1-1_
  6
CONTINUOUS
 62
    7
 10
138.04489548141893
 20
149.32290566934122
 11
140.76745110589104
 21
146.60035004486909
  0
LINE
  8
_1-1_
  6
CONTINUOUS
 62
    7
 10
139.60542421083193
 20
150.02513988597974
 11
142.32796746331292
 21
147.3025842615076
  0
LINE
  8
_1-1_
  6
CONTINUOUS
 62
    7
 10
141.16592819626268
 20
150.72736173062711
 11
143.88845907675255
 21
148.004806106155
  0
LINE
  8
_1-1_
  6
CONTINUOUS
 62
    7
 10
142.72643218169341
 20
151.42959594726562
 11
145.44897543417443
 21
148.70702795080237
  0
LINE
  8
_1-1_
  6
CONTINUOUS
 62
    7
 10
144.28693616712417
 20
152.13181779191302
 11
147.0094917915963
 21
149.40926216744089
  0
LINE
  8
_1-1_
  6
CONTINUOUS
 62
    7
 10
145.8474401525549
 20
152.83405200855154
 11
148.56999577702703
 21
150.1114963840794
  0
LINE
  8
_1-1_
  6
CONTINUOUS
 62
    7
 10
147.40795650997677
 20
153.53627385319891
 11
150.13049976245779
 21
150.81373060071792
  0
LINE
  8
_1-1_
  6
CONTINUOUS
 62
    7
 10
148.96846049540753
 20
154.23850806983742
 11
151.69101611987966
 21
151.51595244536529
  0
LINE
  8
_1-1_
  6
CONTINUOUS
 62
    7
 10
150.52896448083825
 20
154.94072991448482
 11
153.25150773331927
 21
152.21817429001268
  0
LINE
  8
_1-1_
  6
CONTINUOUS
 62
    7
 10
152.08948083826013
 20
155.64296413112331
 11
154.81202409074115
 21
152.9204085066512
  0
LINE
  8
_1-1_
  6
CONTINUOUS
 62
    7
 10
153.64998482369089
 20
156.34519834776182
 11
156.37252807617187
 21
153.62264272328972
  0
LINE
  8
_1-1_
  6
CONTINUOUS
 62
    7
 10
155.21048880912164
 20
157.04742019240922
 11
157.93303206160263
 21
154.32485219594597
  0
LINE
  8
_1-1_
  6
CONTINUOUS
 62
    7
 10
156.77099279455237
 20
157.74964203705659
 11
159.49353604703336
 21
155.02708641258448
  0
LINE
  8
_1-1_
  6
CONTINUOUS
 62
    7
 10
158.33149677998313
 20
158.4518762536951
 11
161.05405240445523
 21
155.72932062922297
  0
LINE
  8
_1-1_
  6
CONTINUOUS
 62
    7
 10
159.892013137405
 20
159.15411047033362
 11
162.61455638988599
 21
156.43154247387037
  0
LINE
  8
_1-1_
  6
CONTINUOUS
 62
    7
 10
161.45251712283573
 20
159.85633231498102
 11
164.17507274730787
 21
157.1337890625
  0
LINE
  8
_1-1_
  6
CONTINUOUS
 62
    7
 10
163.01300873627534
 20
160.55855415962839
 11
165.73556436074747
 21
157.83599853515625
  0
LINE
  8
_1-1_
  6
CONTINUOUS
 62
    7
 10
164.57352509369721
 20
161.2607883762669
 11
167.29606834617823
 21
158.53823275179477
  0
LINE
  8
_1-1_
  6
CONTINUOUS
 62
    7
 10
166.13404145111909
 20
161.96301022091427
 11
168.85659707559122
 21
159.24046696843328
  0
LINE
  8
_1-1_
  6
CONTINUOUS
 62
    7
 10
167.69454543654984
 20
162.66524443755279
 11
170.41708868903083
 21
159.94268881308068
  0
LINE
  8
_1-1_
  6
CONTINUOUS
 62
    7
 10
169.25504942198057
 20
163.36746628220018
 11
171.97760504645271
 21
160.64491065772805
  0
LINE
  8
_1-1_
  6
CONTINUOUS
 62
    7
 10
170.81555340741133
 20
164.0697004988387
 11
173.53810903188347
 21
161.34714487436656
  0
LINE
  8
_1-1_
  6
CONTINUOUS
 62
    7
 10
172.37605739284206
 20
164.77193471547722
 11
175.09862538930534
 21
162.04937909100508
  0
LINE
  8
_1-1_
  6
CONTINUOUS
 62
    7
 10
173.93657375026393
 20
165.47415656012458
 11
176.65911700274495
 21
162.75160093565245
  0
LINE
  8
_1-1_
  6
CONTINUOUS
 62
    7
 10
175.49707773569469
 20
166.1763907767631
 11
178.21964573215794
 21
163.45383515229096
  0
LINE
  8
_1-1_
  6
CONTINUOUS
 62
    7
 10
177.05759409311656
 20
166.87861262141047
 11
179.7801497175887
 21
164.15605699693836
  0
LINE
  8
_1-1_
  6
CONTINUOUS
 62
    7
 10
178.61809807854732
 20
167.58084683804898
 11
181.34065370301943
 21
164.85829121357688
  0
LINE
  8
_1-1_
  6
CONTINUOUS
 62
    7
 10
180.17860206397805
 20
168.28306868269638
 11
182.90115768845018
 21
165.56052543021539
  0
LINE
  8
_1-1_
  6
CONTINUOUS
 62
    7
 10
181.73909367741766
 20
168.98529052734375
 11
184.46164930188979
 21
166.26273490287164
  0
LINE
  8
_1-1_
  6
CONTINUOUS
 62
    7
 10
183.29961003483953
 20
169.68752474398227
 11
186.02215328732052
 21
166.96496911951016
  0
LINE
  8
_1-1_
  6
CONTINUOUS
 62
    7
 10
184.86011402027029
 20
170.38974658862966
 11
187.5826696447424
 21
167.66720333614865
  0
LINE
  8
_1-1_
  6
CONTINUOUS
 62
    7
 10
186.42061800570102
 20
171.09198080526818
 11
189.14317363017315
 21
168.36942518079604
  0
LINE
  8
_1-1_
  6
CONTINUOUS
 62
    7
 10
187.98112199113177
 20
171.79420264991555
 11
190.70366524361276
 21
169.07164702544341
  0
LINE
  8
_1-1_
  6
CONTINUOUS
 62
    7
 10
189.54163834855365
 20
172.49643686655406
 11
192.26418160103464
 21
169.77388124208193
  0
LINE
  8
_1-1_
  6
CONTINUOUS
 62
    7
 10
191.10214233398437
 20
173.19867108319258
 11
193.82471033044766
 21
170.47611545872044
  0
LINE
  8
_1-1_
  6
CONTINUOUS
 62
    7
 10
192.66264631941513
 20
173.90089292783995
 11
195.38520194388727
 21
171.17833730336784
  0
LINE
  8
_1-1_
  6
CONTINUOUS
 62
    7
 10
194.22316267683701
 20
174.60311477248734
 11
196.945705929318
 21
171.88055914801521
  0
LINE
  8
_1-1_
  6
CONTINUOUS
 62
    7
 10
195.78366666226773
 20
175.30534898912586
 11
200.07633930928
 21
171.01267634211359
  0
LINE
  8
_1-1_
  6
CONTINUOUS
 62
    7
 10
197.34417064769849
 20
176.00758320576438
 11
204.19040989231419
 21
169.16134396114865
  0
LINE
  8
_1-1_
  6
CONTINUOUS
 62
    7
 10
201.12684507627745
 20
174.48764697925466
 11
208.30449284733953
 21
167.3100115801837
  0
LINE
  8
_1-1_
  6
CONTINUOUS
 62
    7
 10
205.24090328732055
 20
172.63632697028083
 11
212.4185510583826
 21
165.45867919921875
  0
LINE
  8
_1-1_
  6
CONTINUOUS
 62
    7
 10
209.35497387035474
 20
170.78499458931589
 11
216.53260926942568
 21
163.6073468182538
  0
LINE
  8
_1-1_
  6
CONTINUOUS
 62
    7
 10
213.46905682538008
 20
168.93366220835094
 11
220.64666748046875
 21
161.75602680928
  0
LINE
  8
_1-1_
  6
CONTINUOUS
 62
    7
 10
217.58309029244089
 20
167.08232982738599
 11
224.76072569151182
 21
159.90469442831505
  0
LINE
  8
_1-1_
  6
CONTINUOUS
 62
    7
 10
221.69714850348396
 20
165.23100981841216
 11
228.87478390255492
 21
158.05337441934122
  0
LINE
  8
_1-1_
  6
CONTINUOUS
 62
    7
 10
225.81120671452703
 20
163.37968980943836
 11
232.988842113598
 21
156.20204203837628
  0
LINE
  8
_1-1_
  6
CONTINUOUS
 62
    7
 10
229.92528966955237
 20
161.52835742847341
 11
237.10292506862334
 21
154.35070965741133
  0
LINE
  8
_1-1_
  6
CONTINUOUS
 62
    7
 10
234.03932313661318
 20
159.67702504750847
 11
241.21698327966641
 21
152.4993896484375
  0
LINE
  8
_1-1_
  6
CONTINUOUS
 62
    7
 10
238.15338134765625
 20
157.82570503853464
 11
245.33104149070948
 21
150.64805726747255
  0
LINE
  8
_1-1_
  6
CONTINUOUS
 62
    7
 10
242.26743955869935
 20
155.97438502956081
 11
249.44509970175255
 21
148.7967248865076
  0
LINE
  8
_1-1_
  6
CONTINUOUS
 62
    7
 10
246.38152251372469
 20
154.12304027660474
 11
253.55918265677789
 21
146.94539250554266
  0
LINE
  8
_1-1_
  6
CONTINUOUS
 62
    7
 10
250.49560546875
 20
152.27172026763091
 11
257.67324086782094
 21
145.09407249656886
  0
LINE
  8
_1-1_
  6
CONTINUOUS
 62
    7
 10
254.6096636797931
 20
150.42037551467484
 11
261.78729907886401
 21
143.24274011560388
  0
LINE
  8
_1-1_
  6
CONTINUOUS
 62
    7
 10
258.72372189083615
 20
148.56905550570102
 11
265.90135728990708
 21
141.39140773463893
  0
LINE
  8
_1-1_
  6
CONTINUOUS
 62
    7
 10
262.83780484586151
 20
146.71772312473607
 11
270.01544024493245
 21
139.54007535367398
  0
LINE
  8
_1-1_
  6
CONTINUOUS
 62
    7
 10
266.95183831292229
 20
144.86639074377112
 11
274.12949845597552
 21
137.68875534470018
  0
LINE
  8
_1-1_
  6
CONTINUOUS
 62
    7
 10
271.06592126794766
 20
143.01505836280617
 11
278.24358141100083
 21
135.83741059174409
  0
LINE
  8
_1-1_
  6
CONTINUOUS
 62
    7
 10
275.17997947899073
 20
141.16373835383234
 11
282.35763962204396
 21
133.98609058277029
  0
LINE
  8
_1-1_
  6
CONTINUOUS
 62
    7
 10
279.29406243401604
 20
139.3124059728674
 11
286.47169783308703
 21
132.13475820180534
  0
LINE
  8
_1-1_
  6
CONTINUOUS
 62
    7
 10
283.40812064505911
 20
137.46107359190245
 11
290.58578078811234
 21
130.28342582084039
  0
LINE
  8
_1-1_
  6
CONTINUOUS
 62
    7
 10
287.52220360008448
 20
135.6097412109375
 11
294.69983899915542
 21
128.43210581186656
  0
LINE
  8
_1-1_
  6
CONTINUOUS
 62
    7
 10
291.63623706714526
 20
133.7584212019637
 11
298.81387246621625
 21
126.58078580289275
  0
LINE
  8
_1-1_
  6
CONTINUOUS
 62
    7
 10
295.75029527818839
 20
131.90710119298987
 11
302.92793067725933
 21
124.7294534219278
  0
LINE
  8
_1-1_
  6
CONTINUOUS
 62
    7
 10
299.86435348923146
 20
130.05576881202492
 11
307.04203837626693
 21
122.87812104096284
  0
LINE
  8
_1-1_
  6
CONTINUOUS
 62
    7
 10
303.97838695629224
 20
128.20446117504224
 11
311.15604709934547
 21
121.02680103198902
  0
LINE
  8
_1-1_
  6
CONTINUOUS
 62
    7
 10
308.09246991131761
 20
126.35311642208616
 11
315.27010531038854
 21
119.17548102301521
  0
LINE
  8
_1-1_
  6
CONTINUOUS
 62
    7
 10
312.20655286634292
 20
124.50178404112121
 11
319.38418826541385
 21
117.32413627005913
  0
LINE
  8
_1-1_
  6
CONTINUOUS
 62
    7
 10
316.32061107738599
 20
122.65045166015625
 11
323.49824647645693
 21
115.47281626108531
  0
LINE
  8
_1-1_
  6
CONTINUOUS
 62
    7
 10
320.43466928842906
 20
120.79913165118244
 11
327.6123046875
 21
113.62148388012037
  0
LINE
  8
_1-1_
  6
CONTINUOUS
 62
    7
 10
324.54875224345443
 20
118.94779927021749
 11
331.72638764252537
 21
111.77015149915542
  0
LINE
  8
_1-1_
  6
CONTINUOUS
 62
    7
 10
328.6628104544975
 20
117.09646688925254
 11
335.84047059755068
 21
109.91880674619934
  0
LINE
  8
_1-1_
  6
CONTINUOUS
 62
    7
 10
332.77689340952281
 20
115.24513450828759
 11
339.95450406461151
 21
108.06748673722551
  0
LINE
  8
_1-1_
  6
CONTINUOUS
 62
    7
 10
336.89097636454818
 20
113.39378975533151
 11
344.06861176361912
 21
106.21614198426943
  0
LINE
  8
_1-1_
  6
CONTINUOUS
 62
    7
 10
341.00498508762672
 20
111.54248211834883
 11
348.1826452306799
 21
104.36483434728675
  0
LINE
  8
_1-1_
  6
CONTINUOUS
 62
    7
 10
345.11909278663433
 20
109.69113736539275
 11
352.29670344172297
 21
102.5135019663218
  0
LINE
  8
_1-1_
  6
CONTINUOUS
 62
    7
 10
349.2331262536951
 20
107.83981735641892
 11
356.41076165276604
 21
100.66218195734798
  0
LINE
  8
_1-1_
  6
CONTINUOUS
 62
    7
 10
353.34723395270271
 20
105.98848497545397
 11
360.52486935177365
 21
98.810843390387461
  0
LINE
  8
_1-1_
  6
CONTINUOUS
 62
    7
 10
357.46124267578125
 20
104.13717733847129
 11
364.63890281883448
 21
96.959523381413646
  0
LINE
  8
_1-1_
  6
CONTINUOUS
 62
    7
 10
361.57532563080662
 20
102.28583258551521
 11
368.39105554529141
 21
95.470096485034844
  0
LINE
  8
_1-1_
  6
CONTINUOUS
 62
    7
 10
365.68938384184969
 20
100.43451257654139
 11
368.39105554529141
 21
97.732828501108543
  0
LINE
  8
_1-1_
  6
CONTINUOUS
 62
    7
 10
367.29380839579818
 20
95.764809685784428
 11
368.39105554529141
 21
96.862044463286537
  0
LINE
  8
_1-1_
  6
CONTINUOUS
 62
    7
 10
365.73332915434969
 20
96.467031530431811
 11
368.39105554529141
 21
99.124776479360222
  0
LINE
  8
_1-1_
  6
CONTINUOUS
 62
    7
 10
364.17282516891896
 20
97.16925337507918
 11
366.89538079339104
 21
99.891815185546875
  0
LINE
  8
_1-1_
  6
CONTINUOUS
 62
    7
 10
362.61229643950594
 20
97.871487591717695
 11
365.33485206397808
 21
100.59404321618983
  0
LINE
  8
_1-1_
  6
CONTINUOUS
 62
    7
 10
361.05179245407521
 20
98.573721808356211
 11
363.77434807854729
 21
101.29627124683277
  0
LINE
  8
_1-1_
  6
CONTINUOUS
 62
    7
 10
359.49128846864443
 20
99.275943653003594
 11
362.21381934913433
 21
101.99850546347129
  0
LINE
  8
_1-1_
  6
CONTINUOUS
 62
    7
 10
357.93075973923146
 20
99.97817786964211
 11
360.65331536370354
 21
102.70073349411423
  0
LINE
  8
_1-1_
  6
CONTINUOUS
 62
    7
 10
356.37025575380068
 20
100.68041208628063
 11
359.09281137827281
 21
103.40296152475719
  0
LINE
  8
_1-1_
  6
CONTINUOUS
 62
    7
 10
354.80975176836995
 20
101.38263393092801
 11
357.53233213682432
 21
104.10518336940457
  0
LINE
  8
_1-1_
  6
CONTINUOUS
 62
    7
 10
353.24927252692146
 20
102.08485577557539
 11
355.97180340741136
 21
104.80741758604309
  0
LINE
  8
_1-1_
  6
CONTINUOUS
 62
    7
 10
351.68874379750849
 20
102.78708999221389
 11
354.41129942198057
 21
105.50963943069046
  0
LINE
  8
_1-1_
  6
CONTINUOUS
 62
    7
 10
350.12826455606
 20
103.48930565086572
 11
352.85082018053214
 21
106.21186127533784
  0
LINE
  8
_1-1_
  6
CONTINUOUS
 62
    7
 10
348.56776057062922
 20
104.19153986750423
 11
351.29029145111912
 21
106.91409549197635
  0
LINE
  8
_1-1_
  6
CONTINUOUS
 62
    7
 10
347.00723184121625
 20
104.89377408414275
 11
349.72978746568839
 21
107.61631733662374
  0
LINE
  8
_1-1_
  6
CONTINUOUS
 62
    7
 10
345.44672785578547
 20
105.59599592879012
 11
348.1692834802576
 21
108.31855155326225
  0
LINE
  8
_1-1_
  6
CONTINUOUS
 62
    7
 10
343.88622387035474
 20
106.2982177734375
 11
346.60877949482688
 21
109.02078576990077
  0
LINE
  8
_1-1_
  6
CONTINUOUS
 62
    7
 10
342.32571988492401
 20
107.00045199007602
 11
345.04827550939615
 21
109.72300761454815
  0
LINE
  8
_1-1_
  6
CONTINUOUS
 62
    7
 10
340.76521589949328
 20
107.70268620671453
 11
343.48777152396536
 21
110.42524183118667
  0
LINE
  8
_1-1_
  6
CONTINUOUS
 62
    7
 10
339.2047119140625
 20
108.40492042335305
 11
341.9272427945524
 21
111.12746367583404
  0
LINE
  8
_1-1_
  6
CONTINUOUS
 62
    7
 10
337.64420792863177
 20
109.1071298960093
 11
340.36673880912161
 21
111.82968552048142
  0
LINE
  8
_1-1_
  6
CONTINUOUS
 62
    7
 10
336.08365445523651
 20
109.80936411264781
 11
338.80623482369089
 21
112.53191973711994
  0
LINE
  8
_1-1_
  6
CONTINUOUS
 62
    7
 10
334.52315046980578
 20
110.51159832928633
 11
337.24573083826016
 21
113.23415395375845
  0
LINE
  8
_1-1_
  6
CONTINUOUS
 62
    7
 10
332.962646484375
 20
111.21383254592483
 11
335.68520210884714
 21
113.93638817039697
  0
LINE
  8
_1-1_
  6
CONTINUOUS
 62
    7
 10
331.40214249894427
 20
111.91606676256335
 11
334.12469812341641
 21
114.63861001504435
  0
LINE
  8
_1-1_
  6
CONTINUOUS
 62
    7
 10
329.84163851351354
 20
112.6182762352196
 11
332.56421888196792
 21
115.34083185969173
  0
LINE
  8
_1-1_
  6
CONTINUOUS
 62
    7
 10
328.28113452808282
 20
113.32051045185811
 11
331.0036901525549
 21
116.04306607633025
  0
LINE
  8
_1-1_
  6
CONTINUOUS
 62
    7
 10
326.72063054265203
 20
114.02274466849663
 11
329.44318616712417
 21
116.74530029296875
  0
LINE
  8
_1-1_
  6
CONTINUOUS
 62
    7
 10
325.16015130120354
 20
114.72495414115288
 11
327.88270692567568
 21
117.447509765625
  0
LINE
  8
_1-1_
  6
CONTINUOUS
 62
    7
 10
323.59962257179058
 20
115.42718835779139
 11
326.32217819626271
 21
118.14974398226352
  0
LINE
  8
_1-1_
  6
CONTINUOUS
 62
    7
 10
322.03911858635979
 20
116.12942257442991
 11
324.76167421083193
 21
118.85197819890203
  0
LINE
  8
_1-1_
  6
CONTINUOUS
 62
    7
 10
320.47861460092906
 20
116.83164441907729
 11
323.2011702254012
 21
119.55420004354941
  0
LINE
  8
_1-1_
  6
CONTINUOUS
 62
    7
 10
318.91811061549834
 20
117.53387863571579
 11
321.64064149598818
 21
120.25643426018793
  0
LINE
  8
_1-1_
  6
CONTINUOUS
 62
    7
 10
317.35760663006761
 20
118.23610048036318
 11
320.08016225453969
 21
120.95865610483531
  0
LINE
  8
_1-1_
  6
CONTINUOUS
 62
    7
 10
315.79710264463682
 20
118.93833469700169
 11
318.51965826910896
 21
121.66089032147383
  0
LINE
  8
_1-1_
  6
CONTINUOUS
 62
    7
 10
314.23659865920609
 20
119.64055654164908
 11
316.95915428367823
 21
122.36311216612121
  0
LINE
  8
_1-1_
  6
CONTINUOUS
 62
    7
 10
312.67606992979307
 20
120.34279075828759
 11
315.39862555426521
 21
123.06534638275971
  0
LINE
  8
_1-1_
  6
CONTINUOUS
 62
    7
 10
311.11559068834464
 20
121.04501260293497
 11
313.83812156883448
 21
123.7675682274071
  0
LINE
  8
_1-1_
  6
CONTINUOUS
 62
    7
 10
309.55503721494932
 20
121.74724681957349
 11
312.27761758340375
 21
124.46980244404561
  0
LINE
  8
_1-1_
  6
CONTINUOUS
 62
    7
 10
307.99455797350089
 20
122.44946866422087
 11
310.71711359797297
 21
125.17203666068413
  0
LINE
  8
_1-1_
  6
CONTINUOUS
 62
    7
 10
306.43402924408787
 20
123.15171525285051
 11
309.15660961254224
 21
125.87425850533151
  0
LINE
  8
_1-1_
  6
CONTINUOUS
 62
    7
 10
304.87352525865714
 20
123.85393709749789
 11
307.59610562711151
 21
126.57648034997889
  0
LINE
  8
_1-1_
  6
CONTINUOUS
 62
    7
 10
303.31302127322635
 20
124.55615894214527
 11
306.03560164168078
 21
127.27871456661741
  0
LINE
  8
_1-1_
  6
CONTINUOUS
 62
    7
 10
301.75251728779563
 20
125.25839315878379
 11
304.47509765625
 21
127.98093641126479
  0
LINE
  8
_1-1_
  6
CONTINUOUS
 62
    7
 10
300.19203804634714
 20
125.96061500343117
 11
302.91459367081927
 21
128.68317062790331
  0
LINE
  8
_1-1_
  6
CONTINUOUS
 62
    7
 10
298.63153406091641
 20
126.66283684807856
 11
301.35406494140625
 21
129.38539247255068
  0
LINE
  8
_1-1_
  6
CONTINUOUS
 62
    7
 10
297.07100533150339
 20
127.36507106471707
 11
299.79358569995776
 21
130.08762668918919
  0
LINE
  8
_1-1_
  6
CONTINUOUS
 62
    7
 10
295.51050134607266
 20
128.06729290936445
 11
298.23305697054479
 21
130.78986090582771
  0
LINE
  8
_1-1_
  6
CONTINUOUS
 62
    7
 10
293.94999736064193
 20
128.76952712600297
 11
296.67255298511401
 21
131.49208275047511
  0
LINE
  8
_1-1_
  6
CONTINUOUS
 62
    7
 10
292.38949337521115
 20
129.47174897065034
 11
295.11204899968328
 21
132.19430459512247
  0
LINE
  8
_1-1_
  6
CONTINUOUS
 62
    7
 10
290.82898938978042
 20
130.17398318728885
 11
293.55156975823479
 21
132.89652643976984
  0
LINE
  8
_1-1_
  6
CONTINUOUS
 62
    7
 10
289.26848540434969
 20
130.87620503193625
 11
291.99101628483953
 21
133.59877302839951
  0
LINE
  8
_1-1_
  6
CONTINUOUS
 62
    7
 10
287.70798141891896
 20
131.57843924857477
 11
290.43053704339104
 21
134.30098250105576
  0
LINE
  8
_1-1_
  6
CONTINUOUS
 62
    7
 10
286.14745268950594
 20
132.28067346521325
 11
288.87000831397808
 21
135.00322908968539
  0
LINE
  8
_1-1_
  6
CONTINUOUS
 62
    7
 10
284.58697344805745
 20
132.98289530986065
 11
287.30950432854729
 21
135.70545093433279
  0
LINE
  8
_1-1_
  6
CONTINUOUS
 62
    7
 10
283.02641997466219
 20
133.68512952649917
 11
285.74900034311656
 21
136.4076851509713
  0
LINE
  8
_1-1_
  6
CONTINUOUS
 62
    7
 10
281.4659407332137
 20
134.38735137114654
 11
284.18849635768584
 21
137.10991936760979
  0
LINE
  8
_1-1_
  6
CONTINUOUS
 62
    7
 10
279.90541200380068
 20
135.08958558778505
 11
282.62796762827281
 21
137.81214121225719
  0
LINE
  8
_1-1_
  6
CONTINUOUS
 62
    7
 10
278.34490801836995
 20
135.79180743243245
 11
281.06748838682432
 21
138.51436305690456
  0
LINE
  8
_1-1_
  6
CONTINUOUS
 62
    7
 10
276.78440403293922
 20
136.49404164907097
 11
279.50695965741136
 21
139.21659727354307
  0
LINE
  8
_1-1_
  6
CONTINUOUS
 62
    7
 10
275.2238753035262
 20
137.19627586570948
 11
277.94643092799834
 21
139.91883149018159
  0
LINE
  8
_1-1_
  6
CONTINUOUS
 62
    7
 10
273.66337131809547
 20
137.89851008234797
 11
276.38592694256761
 21
140.6210657068201
  0
LINE
  8
_1-1_
  6
CONTINUOUS
 62
    7
 10
272.10286733266469
 20
138.60073192699537
 11
274.82542295713682
 21
141.3232875514675
  0
LINE
  8
_1-1_
  6
CONTINUOUS
 62
    7
 10
270.54233860325172
 20
139.30296614363388
 11
273.26491897170609
 21
142.02552176810602
  0
LINE
  8
_1-1_
  6
CONTINUOUS
 62
    7
 10
268.98183461782094
 20
140.0052003602724
 11
271.70439024229307
 21
142.7277559847445
  0
LINE
  8
_1-1_
  6
CONTINUOUS
 62
    7
 10
267.42133063239021
 20
140.70743457691091
 11
270.14388625686234
 21
143.4299778293919
  0
LINE
  8
_1-1_
  6
CONTINUOUS
 62
    7
 10
265.86080190297719
 20
141.40965642155828
 11
268.58335752744932
 21
144.13222441802154
  0
LINE
  8
_1-1_
  6
CONTINUOUS
 62
    7
 10
264.30029791754646
 20
142.1118906381968
 11
267.02285354201859
 21
144.83444626266893
  0
LINE
  8
_1-1_
  6
CONTINUOUS
 62
    7
 10
262.73979393211573
 20
142.81412485483531
 11
265.46234955658787
 21
145.53668047930745
  0
LINE
  8
_1-1_
  6
CONTINUOUS
 62
    7
 10
261.17926520270271
 20
143.51634669948268
 11
263.90182082717484
 21
146.23891469594597
  0
LINE
  8
_1-1_
  6
CONTINUOUS
 62
    7
 10
259.61876121727198
 20
144.2185809161212
 11
262.34131684174412
 21
146.94113654059333
  0
LINE
  8
_1-1_
  6
CONTINUOUS
 62
    7
 10
258.05825723184125
 20
144.92080276076859
 11
260.78078811233109
 21
147.64337075723185
  0
LINE
  8
_1-1_
  6
CONTINUOUS
 62
    7
 10
256.49772850242823
 20
145.62303697740711
 11
259.22028412690037
 21
148.34560497387037
  0
LINE
  8
_1-1_
  6
CONTINUOUS
 62
    7
 10
254.93722451699747
 20
146.32528356603675
 11
257.65975539748734
 21
149.04783919050888
  0
LINE
  8
_1-1_
  6
CONTINUOUS
 62
    7
 10
253.37669578758448
 20
147.02750541068414
 11
256.09927615603885
 21
149.75006103515625
  0
LINE
  8
_1-1_
  6
CONTINUOUS
 62
    7
 10
251.81619180215372
 20
147.72973962732263
 11
254.53874742662586
 21
150.45229525179477
  0
LINE
  8
_1-1_
  6
CONTINUOUS
 62
    7
 10
250.255687816723
 20
148.43197384396115
 11
252.97821869721284
 21
151.15452946843328
  0
LINE
  8
_1-1_
  6
CONTINUOUS
 62
    7
 10
248.69518383129224
 20
149.13419568860854
 11
251.41771471178211
 21
151.85675131308068
  0
LINE
  8
_1-1_
  6
CONTINUOUS
 62
    7
 10
247.13465510187925
 20
149.83642990524706
 11
249.85721072635135
 21
152.55898552971919
  0
LINE
  8
_1-1_
  6
CONTINUOUS
 62
    7
 10
245.57415111644849
 20
150.53865174989443
 11
248.29670674092063
 21
153.26120737436656
  0
LINE
  8
_1-1_
  6
CONTINUOUS
 62
    7
 10
244.0136223870355
 20
151.24089833852409
 11
246.7361780115076
 21
153.96344159100508
  0
LINE
  8
_1-1_
  6
CONTINUOUS
 62
    7
 10
242.45311840160474
 20
151.94313255516261
 11
245.17564928209461
 21
154.66567580764359
  0
LINE
  8
_1-1_
  6
CONTINUOUS
 62
    7
 10
240.89258967219175
 20
152.64536677180109
 11
243.61514529666385
 21
155.36791002428211
  0
LINE
  8
_1-1_
  6
CONTINUOUS
 62
    7
 10
239.33208568676099
 20
153.34758861644849
 11
242.05464131123313
 21
156.07014424092063
  0
LINE
  8
_1-1_
  6
CONTINUOUS
 62
    7
 10
237.77158170133026
 20
154.04982283308701
 11
240.49413732580237
 21
156.77237845755914
  0
LINE
  8
_1-1_
  6
CONTINUOUS
 62
    7
 10
236.21105297191724
 20
154.75204467773437
 11
238.93363334037164
 21
157.47460030220651
  0
LINE
  8
_1-1_
  6
CONTINUOUS
 62
    7
 10
234.65054898648651
 20
155.45426652238177
 11
237.37312935494089
 21
158.17682214685388
  0
LINE
  8
_1-1_
  6
CONTINUOUS
 62
    7
 10
233.09002025707349
 20
156.15651311101141
 11
235.81257588154563
 21
158.8790563634924
  0
LINE
  8
_1-1_
  6
CONTINUOUS
 62
    7
 10
231.52951627164276
 20
156.8587349556588
 11
234.25207189611487
 21
159.58129058013091
  0
LINE
  8
_1-1_
  6
CONTINUOUS
 62
    7
 10
229.96901228621201
 20
157.56096917229732
 11
232.69156791068414
 21
160.28352479676943
  0
LINE
  8
_1-1_
  6
CONTINUOUS
 62
    7
 10
228.40850830078125
 20
158.26319101694469
 11
231.13106392525339
 21
160.98575901340794
  0
LINE
  8
_1-1_
  6
CONTINUOUS
 62
    7
 10
226.84797957136826
 20
158.9654252335832
 11
229.57055993982266
 21
161.68799323004646
  0
LINE
  8
_1-1_
  6
CONTINUOUS
 62
    7
 10
225.2874755859375
 20
159.66765945022172
 11
228.01003121040964
 21
162.39021507469386
  0
LINE
  8
_1-1_
  6
CONTINUOUS
 62
    7
 10
223.72697160050677
 20
160.36989366686024
 11
226.44952722497891
 21
163.09243691934122
  0
LINE
  8
_1-1_
  6
CONTINUOUS
 62
    7
 10
222.16646761507602
 20
161.0721155115076
 11
224.88899849556589
 21
163.79467113597974
  0
LINE
  8
_1-1_
  6
CONTINUOUS
 62
    7
 10
220.60596362964529
 20
161.77434972814612
 11
223.32849451013516
 21
164.49690535261826
  0
LINE
  8
_1-1_
  6
CONTINUOUS
 62
    7
 10
219.04543490023227
 20
162.47658394478464
 11
221.7679905247044
 21
165.19913956925677
  0
LINE
  8
_1-1_
  6
CONTINUOUS
 62
    7
 10
217.48493091480154
 20
163.17880578943203
 11
220.20748653927367
 21
165.90137378589529
  0
LINE
  8
_1-1_
  6
CONTINUOUS
 62
    7
 10
215.92442692937078
 20
163.88104000607052
 11
218.64698255384292
 21
166.60359563054266
  0
LINE
  8
_1-1_
  6
CONTINUOUS
 62
    7
 10
214.36389819995779
 20
164.58326185071792
 11
217.08645382442992
 21
167.30581747519005
  0
LINE
  8
_1-1_
  6
CONTINUOUS
 62
    7
 10
212.80339421452703
 20
165.28549606735643
 11
215.52594983899917
 21
168.00805169182857
  0
LINE
  8
_1-1_
  6
CONTINUOUS
 62
    7
 10
211.2428902290963
 20
165.98773028399495
 11
213.96544585356841
 21
168.71028590846706
  0
LINE
  8
_1-1_
  6
CONTINUOUS
 62
    7
 10
209.68238624366555
 20
166.68995212864232
 11
212.40491712415542
 21
169.41252012510557
  0
LINE
  8
_1-1_
  6
CONTINUOUS
 62
    7
 10
208.12188225823482
 20
167.39218634528083
 11
210.84441313872466
 21
170.11474196975297
  0
LINE
  8
_1-1_
  6
CONTINUOUS
 62
    7
 10
206.5613535288218
 20
168.09442056191935
 11
209.28390915329393
 21
170.81697618639149
  0
LINE
  8
_1-1_
  6
CONTINUOUS
 62
    7
 10
205.00084954339107
 20
168.79664240656672
 11
207.72340516786318
 21
171.51919803103885
  0
LINE
  8
_1-1_
  6
CONTINUOUS
 62
    7
 10
203.44033318596919
 20
169.49887662320523
 11
206.16291355442357
 21
172.22141987568625
  0
LINE
  8
_1-1_
  6
CONTINUOUS
 62
    7
 10
201.87984157252959
 20
170.20109846785263
 11
204.60238482501057
 21
172.92365409232477
  0
LINE
  8
_1-1_
  6
CONTINUOUS
 62
    7
 10
200.31932521510771
 20
170.90333268449115
 11
203.0418684675887
 21
173.62588830896328
  0
LINE
  8
_1-1_
  6
CONTINUOUS
 62
    7
 10
198.75879648569469
 20
171.60556690112966
 11
201.48135211016682
 21
174.32812252560177
  0
LINE
  8
_1-1_
  6
CONTINUOUS
 62
    7
 10
196.62820352090372
 20
171.73768739442568
 11
199.92084812473607
 21
175.03034437024917
  0
LINE
  8
_1-1_
  6
CONTINUOUS
 62
    7
 10
192.51410819388727
 20
169.88634264146961
 11
198.36035651129646
 21
175.73257858688768
  0
LINE
  8
_1-1_
  6
CONTINUOUS
 62
    7
 10
188.40003761085305
 20
168.03502263249578
 11
195.57767300992398
 21
175.21265803156675
  0
LINE
  8
_1-1_
  6
CONTINUOUS
 62
    7
 10
184.28595465582771
 20
166.18367787953972
 11
191.46360242688979
 21
173.36132565060177
  0
LINE
  8
_1-1_
  6
CONTINUOUS
 62
    7
 10
180.17185932881125
 20
164.33233312658362
 11
187.34949472788219
 21
171.50996852565456
  0
LINE
  8
_1-1_
  6
CONTINUOUS
 62
    7
 10
176.05778874577703
 20
162.48100074561867
 11
183.23544888883023
 21
169.65864851668076
  0
LINE
  8
_1-1_
  6
CONTINUOUS
 62
    7
 10
171.94371816274284
 20
160.62966836465372
 11
179.12135356181378
 21
167.80730376372466
  0
LINE
  8
_1-1_
  6
CONTINUOUS
 62
    7
 10
167.82965995169977
 20
158.7783483556799
 11
175.00728297877956
 21
165.95598375475086
  0
LINE
  8
_1-1_
  6
CONTINUOUS
 62
    7
 10
163.71556462468328
 20
156.92700360272383
 11
170.89322476773648
 21
164.10465137378591
  0
LINE
  8
_1-1_
  6
CONTINUOUS
 62
    7
 10
159.60149404164909
 20
155.07565884976773
 11
166.77912944072003
 21
162.25330662082982
  0
LINE
  8
_1-1_
  6
CONTINUOUS
 62
    7
 10
155.48742345861487
 20
153.22433884079393
 11
162.66508360166807
 21
160.40198661185602
  0
LINE
  8
_1-1_
  6
CONTINUOUS
 62
    7
 10
151.37332813159841
 20
151.37299408783784
 11
158.55098827465162
 21
158.55064185889992
  0
LINE
  8
_1-1_
  6
CONTINUOUS
 62
    7
 10
147.25928229254646
 20
149.52167407886404
 11
154.4369176916174
 21
156.69930947793497
  0
LINE
  8
_1-1_
  6
CONTINUOUS
 62
    7
 10
143.14519933752112
 20
147.67032932590794
 11
150.32285948057432
 21
154.84798946896115
  0
LINE
  8
_1-1_
  6
CONTINUOUS
 62
    7
 10
139.03111638249578
 20
145.818996944943
 11
146.20876415355787
 21
152.99664471600508
  0
LINE
  8
_1-1_
  6
CONTINUOUS
 62
    7
 10
134.91705817145271
 20
143.96766456397805
 11
142.09470594251479
 21
151.14531233504013
  0
LINE
  8
_1-1_
  6
CONTINUOUS
 62
    7
 10
130.80297521642737
 20
142.1163321830131
 11
137.98062298748945
 21
149.29397995407518
  0
LINE
  8
_1-1_
  6
CONTINUOUS
 62
    7
 10
126.6889170053843
 20
140.26499980204815
 11
133.86656477644638
 21
147.44265994510135
  0
LINE
  8
_1-1_
  6
CONTINUOUS
 62
    7
 10
122.57480930637669
 20
138.41365504909206
 11
129.75244470544763
 21
145.59130282015414
  0
LINE
  8
_1-1_
  6
CONTINUOUS
 62
    7
 10
118.46072635135135
 20
136.56232266812711
 11
125.63837412241344
 21
143.73997043918919
  0
LINE
  8
_1-1_
  6
CONTINUOUS
 62
    7
 10
114.34666814030828
 20
134.71099028716216
 11
121.52430353937923
 21
141.88863805822425
  0
LINE
  8
_1-1_
  6
CONTINUOUS
 62
    7
 10
110.23258518528294
 20
132.85965790619721
 11
117.41022058435389
 21
140.03729330526818
  0
LINE
  8
_1-1_
  6
CONTINUOUS
 62
    7
 10
106.1185022302576
 20
131.00832552523227
 11
113.29615000131969
 21
138.18596092430323
  0
LINE
  8
_1-1_
  6
CONTINUOUS
 62
    7
 10
102.0044316472234
 20
129.1569807722762
 11
109.18206704629435
 21
136.33462854333825
  0
LINE
  8
_1-1_
  6
CONTINUOUS
 62
    7
 10
97.890354878193634
 20
127.30566076330237
 11
105.06799646326014
 21
134.48329616237331
  0
LINE
  8
_1-1_
  6
CONTINUOUS
 62
    7
 10
93.776284295159428
 20
125.45432838233742
 11
100.95392588022594
 21
132.63196378140836
  0
LINE
  8
_1-1_
  6
CONTINUOUS
 62
    7
 10
89.662213712125222
 20
123.60299600137247
 11
96.839849111196159
 21
130.78063140044341
  0
LINE
  8
_1-1_
  6
CONTINUOUS
 62
    7
 10
85.548136943095443
 20
121.75165124841639
 11
92.725784714157527
 21
128.92929901947846
  0
LINE
  8
_1-1_
  6
CONTINUOUS
 62
    7
 10
81.434066360061252
 20
119.90033123944258
 11
88.611714131123321
 21
127.07796663851352
  0
LINE
  8
_1-1_
  6
CONTINUOUS
 62
    7
 10
77.319995777027032
 20
118.04899885847763
 11
84.497643548089115
 21
125.2266466295397
  0
LINE
  8
_1-1_
  6
CONTINUOUS
 62
    7
 10
73.205912822001693
 20
116.19765410552155
 11
80.383560593063777
 21
123.37530187658362
  0
LINE
  8
_1-1_
  6
CONTINUOUS
 62
    7
 10
69.091842238967502
 20
114.34632172455659
 11
76.269490010029585
 21
121.52396949561867
  0
LINE
  8
_1-1_
  6
CONTINUOUS
 62
    7
 10
64.977784027924429
 20
112.49500171558277
 11
72.155431798986484
 21
119.67263711465372
  0
LINE
  8
_1-1_
  6
CONTINUOUS
 62
    7
 10
60.863707258894635
 20
110.64365696262669
 11
68.041348843961146
 21
117.82130473368878
  0
LINE
  8
_1-1_
  6
CONTINUOUS
 62
    7
 10
56.749642861855989
 20
108.79233695365288
 11
63.927290632918073
 21
115.96997235272383
  0
LINE
  8
_1-1_
  6
CONTINUOUS
 62
    7
 10
52.635559906830679
 20
106.9409922006968
 11
59.813207677892734
 21
114.11863997175888
  0
LINE
  8
_1-1_
  6
CONTINUOUS
 62
    7
 10
48.521495509792032
 20
105.08967219172298
 11
55.699149466849661
 21
112.26730759079392
  0
LINE
  8
_1-1_
  6
CONTINUOUS
 62
    7
 10
44.407421833760026
 20
103.23833362476246
 11
51.585066511824323
 21
110.4159875818201
  0
LINE
  8
_1-1_
  6
CONTINUOUS
 62
    7
 10
40.293348157728047
 20
101.38700124379751
 11
47.470995928790131
 21
108.56464282886402
  0
LINE
  8
_1-1_
  6
CONTINUOUS
 62
    7
 10
36.179277574693828
 20
99.535668862832566
 11
43.356925345755911
 21
106.71332281989021
  0
LINE
  8
_1-1_
  6
CONTINUOUS
 62
    7
 10
32.065194619668489
 20
97.684330295872044
 11
39.242842390730573
 21
104.86197806693413
  0
LINE
  8
_1-1_
  6
CONTINUOUS
 62
    7
 10
27.951120943636511
 20
95.832997914907097
 11
35.128759435705234
 21
103.01063949997361
  0
LINE
  8
_1-1_
  6
CONTINUOUS
 62
    7
 10
26.702344739759297
 20
96.846963006096928
 11
31.014688852671043
 21
101.15930711900866
  0
LINE
  8
_1-1_
  6
CONTINUOUS
 62
    7
 10
26.702344739759297
 20
99.109701208166186
 11
26.90063064162797
 21
99.307980924039285
  0
LINE
  8
_1-1_
  6
CONTINUOUS
 62
    7
 10
197.54670014252534
 20
172.15101087415542
 11
197.54670014252534
 21
150.72373673722552
  0
LINE
  8
_1-1_
  6
CONTINUOUS
 62
    3
 10
187.54669189453125
 20
144.96843492662586
 11
207.54670839051943
 21
144.96843492662586
  0
LINE
  8
_1-1_
  6
CONTINUOUS
 62
    3
 10
207.54670839051943
 20
104.96843905062289
 11
187.54669189453125
 21
104.96843905062289
  0
LINE
  8
_1-1_
  6
CONTINUOUS
 62
    3
 10
187.54669189453125
 20
104.96843905062289
 11
187.54669189453125
 21
106.56844680373733
  0
LINE
  8
_1-1_
  6
CONTINUOUS
 62
    3
 10
187.54669189453125
 20
143.36843954550255
 11
187.54669189453125
 21
144.96843492662586
  0
LINE
  8
_1-1_
  6
CONTINUOUS
 62
    3
 10
207.54670839051943
 20
144.96843492662586
 11
207.54670839051943
 21
143.36843954550255
  0
LINE
  8
_1-1_
  6
CONTINUOUS
 62
    3
 10
207.54670839051943
 20
106.56844680373733
 11
207.54670839051943
 21
104.96843905062289
  0
LINE
  8
_1-1_
  6
CONTINUOUS
 62
    3
 10
196.14671037003802
 20
143.36843954550255
 11
187.54669189453125
 21
143.36843954550255
  0
LINE
  8
_1-1_
  6
CONTINUOUS
 62
    3
 10
198.94668991501268
 20
143.36843954550255
 11
207.54670839051943
 21
143.36843954550255
  0
LINE
  8
_1-1_
  6
CONTINUOUS
 62
    3
 10
198.94668991501268
 20
106.56844680373733
 11
207.54670839051943
 21
106.56844680373733
  0
LINE
  8
_1-1_
  6
CONTINUOUS
 62
    3
 10
198.14669222445102
 20
107.368444494299
 11
198.14669222445102
 21
142.56844185494089
  0
LINE
  8
_1-1_
  6
CONTINUOUS
 62
    3
 10
196.94670806059966
 20
107.368444494299
 11
196.94670806059966
 21
142.56844185494089
  0
LINE
  8
_1-1_
  6
CONTINUOUS
 62
    3
 10
196.14671037003802
 20
106.56844680373733
 11
187.54669189453125
 21
106.56844680373733
  0
LINE
  8
_1-1_
  6
CONTINUOUS
 62
    7
 10
196.6466996476457
 20
148.73752490894216
 11
198.446700637405
 21
148.73752490894216
  0
LINE
  8
_1-1_
  6
CONTINUOUS
 62
    7
 10
196.6466996476457
 20
204.35153033282307
 11
198.446700637405
 21
204.35153033282307
  0
LINE
  8
_1-1_
  6
CONTINUOUS
 62
    7
 10
196.6466996476457
 20
204.35153033282307
 11
196.6466996476457
 21
175.69371816274284
  0
LINE
  8
_1-1_
  6
CONTINUOUS
 62
    7
 10
196.6466996476457
 20
149.81432115709461
 11
196.6466996476457
 21
148.73752490894216
  0
LINE
  8
_1-1_
  6
CONTINUOUS
 62
    7
 10
198.446700637405
 20
204.35153033282307
 11
198.446700637405
 21
175.69371816274284
  0
LINE
  8
_1-1_
  6
CONTINUOUS
 62
    7
 10
198.446700637405
 20
149.81429641311234
 11
198.446700637405
 21
148.73752490894216
  0
LINE
  8
_1-1_
  6
DASHED1
 62
    7
 10
196.6466996476457
 20
175.69371816274284
 11
196.6466996476457
 21
149.81432115709461
  0
LINE
  8
_1-1_
  6
DASHED1
 62
    7
 10
198.446700637405
 20
149.81429641311234
 11
198.446700637405
 21
175.73257858688768
  0
LINE
  8
_1-1_
  6
CONTINUOUS
 62
    2
 10
197.23050916517104
 20
215.14348210515203
 11
200.15142492345862
 21
202.26394240920609
  0
LINE
  8
_1-1_
  6
CONTINUOUS
 62
    2
 10
197.54670014252534
 20
215.11403676625847
 11
198.71186952333193
 21
202.62383125923776
  0
LINE
  8
_1-1_
  6
CONTINUOUS
 62
    7
 10
197.97087385847763
 20
210.56695886560391
 11
209.22274202913852
 21
241.4811995222762
  0
LINE
  8
_1-1_
  6
CONTINUOUS
 62
    7
 10
199.17458199165964
 20
201.97954744906039
 11
208.90267861855997
 21
228.70726714263091
  0
LINE
  8
_1-1_
  6
CONTINUOUS
 62
    7
 10
197.75018228066935
 20
192.21225635425466
 11
208.53164260451859
 21
221.83403221336573
  0
LINE
  8
_1-1_
  6
CONTINUOUS
 62
    7
 10
208.90267861855997
 20
228.70726714263091
 11
211.38370823215794
 21
228.70726714263091
  0
LINE
  8
_1-1_
  6
CONTINUOUS
 62
    7
 10
208.53164260451859
 20
221.83403221336573
 11
210.77324944573482
 21
221.83403221336573
  0
LINE
  8
_1-2_
  6
CONTINUOUS
 62
    3
 10
258.24393607474661
 20
159.00445886560388
 11
259.50756176097974
 21
163.08169803103885
  0
LINE
  8
_1-2_
  6
CONTINUOUS
 62
    3
 10
192.31795027449326
 20
182.71045581714529
 11
135.58583852407097
 21
163.08169803103885
  0
ARC
  8
_1-2_
  6
CONTINUOUS
 62
    3
 10
44.837988776129635
 20
118.01017555030617
 40
0.599999959404404
 50
109.0858917236328
 51
197.21983337402344
  0
ARC
  8
_1-2_
  6
CONTINUOUS
 62
    3
 10
43.808094746357682
 20
116.94187886006124
 40
0.1999999904954755
 50
197.21757507324216
 51
289.0885009765625
  0
ARC
  8
_1-2_
  6
CONTINUOUS
 62
    3
 10
42.673422323690886
 20
116.54930320945947
 40
0.1999999904954755
 50
289.08401489257812
 51
17.217575073242223
  0
ARC
  8
_1-2_
  6
CONTINUOUS
 62
    3
 10
44.28081615551099
 20
117.10544895481419
 40
0.1999999904954755
 50
289.0885009765625
 51
17.219955444335916
  0
ARC
  8
_1-2_
  6
CONTINUOUS
 62
    3
 10
42.200663798564193
 20
116.38574548669764
 40
0.1999999904954755
 50
197.216552734375
 51
289.08514404296875
  0
ARC
  8
_1-2_
  6
CONTINUOUS
 62
    3
 10
92.257888381545612
 20
139.34913841453761
 40
0.599999959404404
 50
109.0858917236328
 51
197.21983337402344
  0
ARC
  8
_1-2_
  6
CONTINUOUS
 62
    3
 10
91.22799435177366
 20
138.28084172429266
 40
0.1999999904954755
 50
197.21757507324216
 51
289.0885009765625
  0
ARC
  8
_1-2_
  6
CONTINUOUS
 62
    3
 10
90.093334301097983
 20
137.88826607369089
 40
0.1999999904954755
 50
289.08401489257812
 51
17.217575073242223
  0
ARC
  8
_1-2_
  6
CONTINUOUS
 62
    3
 10
91.700728132918073
 20
138.44441181904563
 40
0.1999999904954755
 50
289.0885009765625
 51
17.219955444335916
  0
ARC
  8
_1-2_
  6
CONTINUOUS
 62
    3
 10
89.62057577597129
 20
137.72470835092906
 40
0.1999999904954755
 50
197.216552734375
 51
289.08514404296875
  0
ARC
  8
_1-2_
  6
CONTINUOUS
 62
    3
 10
139.67784984691724
 20
160.68810127876901
 40
0.599999959404404
 50
109.0858917236328
 51
197.21983337402344
  0
ARC
  8
_1-2_
  6
CONTINUOUS
 62
    3
 10
138.64795581714529
 20
159.61980458852409
 40
0.1999999904954755
 50
197.21757507324216
 51
289.0885009765625
  0
ARC
  8
_1-2_
  6
CONTINUOUS
 62
    3
 10
137.51327102248734
 20
159.22722893792232
 40
0.1999999904954755
 50
289.08401489257812
 51
17.217575073242223
  0
ARC
  8
_1-2_
  6
CONTINUOUS
 62
    3
 10
139.12066485430745
 20
159.78337468327703
 40
0.1999999904954755
 50
289.0885009765625
 51
17.219955444335916
  0
ARC
  8
_1-2_
  6
CONTINUOUS
 62
    3
 10
137.04051249736065
 20
159.06367121516047
 40
0.1999999904954755
 50
197.216552734375
 51
289.08514404296875
  0
ARC
  8
_1-2_
  6
CONTINUOUS
 62
    3
 10
350.25542388091219
 20
118.01017555030617
 40
0.599999959404404
 50
342.78041076660162
 51
70.914352416992244
  0
ARC
  8
_1-2_
  6
CONTINUOUS
 62
    3
 10
351.28531791068411
 20
116.94187886006124
 40
0.1999999904954755
 50
250.91174316406253
 51
342.78266906738287
  0
ARC
  8
_1-2_
  6
CONTINUOUS
 62
    3
 10
352.41997796135979
 20
116.54930320945947
 40
0.1999999904954755
 50
162.78266906738281
 51
250.91622924804693
  0
ARC
  8
_1-2_
  6
CONTINUOUS
 62
    3
 10
350.81258412953974
 20
117.10544895481419
 40
0.1999999904954755
 50
162.78028869628909
 51
250.91174316406253
  0
ARC
  8
_1-2_
  6
CONTINUOUS
 62
    3
 10
352.89273648648651
 20
116.38574548669764
 40
0.1999999904954755
 50
250.91510009765628
 51
342.78369140625
  0
ARC
  8
_1-2_
  6
CONTINUOUS
 62
    3
 10
302.83551190350511
 20
139.34913841453761
 40
0.599999959404404
 50
342.78041076660162
 51
70.914352416992244
  0
ARC
  8
_1-2_
  6
CONTINUOUS
 62
    3
 10
303.86540593327703
 20
138.28084172429266
 40
0.1999999904954755
 50
250.91174316406253
 51
342.78266906738287
  0
ARC
  8
_1-2_
  6
CONTINUOUS
 62
    3
 10
305.00006598395271
 20
137.88826607369089
 40
0.1999999904954755
 50
162.78266906738281
 51
250.91622924804693
  0
ARC
  8
_1-2_
  6
CONTINUOUS
 62
    3
 10
303.3926721521326
 20
138.44441181904563
 40
0.1999999904954755
 50
162.78028869628909
 51
250.91174316406253
  0
ARC
  8
_1-2_
  6
CONTINUOUS
 62
    3
 10
305.47282450907943
 20
137.72470835092906
 40
0.1999999904954755
 50
250.91510009765628
 51
342.78369140625
  0
ARC
  8
_1-2_
  6
CONTINUOUS
 62
    3
 10
255.41555043813347
 20
160.68810127876901
 40
0.599999959404404
 50
342.78041076660162
 51
70.914352416992244
  0
ARC
  8
_1-2_
  6
CONTINUOUS
 62
    3
 10
256.44544446790542
 20
159.61980458852409
 40
0.1999999904954755
 50
250.91174316406253
 51
342.78266906738287
  0
ARC
  8
_1-2_
  6
CONTINUOUS
 62
    3
 10
257.58012926256333
 20
159.22722893792232
 40
0.1999999904954755
 50
162.78266906738281
 51
250.91622924804693
  0
ARC
  8
_1-2_
  6
CONTINUOUS
 62
    3
 10
255.97273543074326
 20
159.78337468327703
 40
0.1999999904954755
 50
162.78028869628909
 51
250.91174316406253
  0
ARC
  8
_1-2_
  6
CONTINUOUS
 62
    3
 10
258.05288778769005
 20
159.06367121516047
 40
0.1999999904954755
 50
250.91510009765628
 51
342.78369140625
  0
ARC
  8
_1-1_
  6
CONTINUOUS
 62
    7
 10
197.48622584987334
 20
187.76626999313768
 40
27.347822447080873
 50
9.1478271484375
 51
170.85218811035156
  0
ARC
  8
_1-1_
  6
CONTINUOUS
 62
    7
 10
197.48622584987334
 20
187.59459624419341
 40
19.919484112713789
 50
16.08660888671875
 51
163.91339111328125
  0
ARC
  8
_1-1_
  6
CONTINUOUS
 62
    7
 10
197.48622584987334
 20
187.69302780563768
 40
23.421057623785895
 50
12.185165405273436
 51
167.9019775390625
  0
ARC
  8
_1-1_
  6
CONTINUOUS
 62
    3
 10
196.14671037003802
 20
142.56844185494089
 40
0.7999999619819022
 50
0
 51
90
  0
ARC
  8
_1-1_
  6
CONTINUOUS
 62
    3
 10
198.94668991501268
 20
142.56844185494089
 40
0.7999999619819022
 50
90
 51
180
  0
ARC
  8
_1-1_
  6
CONTINUOUS
 62
    3
 10
198.94668991501268
 20
107.368444494299
 40
0.7999999619819022
 50
180
 51
270
  0
ARC
  8
_1-1_
  6
CONTINUOUS
 62
    3
 10
196.14671037003802
 20
107.368444494299
 40
0.7999999619819022
 50
270
 51
0
  0
CIRCLE
  8
_1-1_
  6
CONTINUOUS
 62
    7
 10
199.31231936892948
 20
201.95371473157729
 40
0.899999914942561
  0
TEXT
  8
_0-0_
 62
    7
 10
141.89189395389042
 20
14.594594594594582
 40
2.5
 41
1
 50
0
  1
縮尺
  0
TEXT
  8
_0-0_
 62
    7
 10
377.10214563318203
 20
22.865493362014362
 40
2.5
 41
1
 50
0
  1
ＮＯ
  0
TEXT
  8
_1-0_
 62
    7
 10
169.90681828679266
 20
13.3181144095756
 40
2.5
 41
1
 50
0
  1
1/5
  0
TEXT
  8
_0-0_
 62
    7
 10
383.97877873601146
 20
17.689098667454061
 40
2.5
 41
1
 50
0
  1
Ｓ
  0
TEXT
  8
_1-3_
 62
    7
 10
129.18697047877956
 20
69.81595013592694
 40
2.5
 41
1
 50
0
  1
野地板
  0
TEXT
  8
_0-0_
 62
    7
 10
39.721903929839272
 20
15.395235628695104
 40
2.5
 41
1
 50
0
  1
棟
  0
TEXT
  8
_0-0_
 62
    7
 10
50.59271580464133
 20
15.395235628695104
 40
2.5
 41
1
 50
0
  1
1
  0
TEXT
  8
_1-1_
 62
    7
 10
159.29457999564505
 20
242.6695540144637
 40
2.5
 41
1
 50
0
  1
７寸冠瓦
  0
TEXT
  8
_1-1_
 62
    7
 10
394.50954540355787
 20
15.22931330912823
 40
2.5
 41
1
 50
0
  1
31
  0
TEXT
  8
_1-1_
 62
    7
 10
25.556194717819636
 20
20.211577544341225
 40
2.5
 41
1
 50
0
  1
鉄骨
  0
TEXT
  8
_1-1_
 62
    7
 10
143.62013327108849
 20
63.815955084723399
 40
2.5
 41
1
 50
0
  1
Ｃ－100ｘ50ｘ20ｘ2.3
  0
TEXT
  8
_1-1_
 62
    7
 10
214.02900902000636
 20
228.02566940720018
 40
2.5
 41
1
 50
0
  1
横筋　９Φ
  0
TEXT
  8
_1-1_
 62
    7
 10
212.60460518501901
 20
220.70018871410474
 40
2.5
 41
1
 50
0
  1
縦筋　９Φ　＠900
  0
TEXT
  8
_1-1_
 62
    7
 10
217.22559336069469
 20
240.84342337943414
 40
2.5
 41
1
 50
0
  1
被膜銅線　０.９φ
  0
LINE
  8
_1-1_
  6
DASHED1
 62
    7
 10
26.702344739759297
 20
99.717469086518165
 11
197.54670014252534
 21
176.59740551097974
  0
LINE
  8
_1-1_
  6
DASHED1
 62
    7
 10
197.54670014252534
 20
176.59740551097974
 11
243.14277651427236
 21
156.07917411785488
  0
LINE
  8
_1-1_
  6
DASHED1
 62
    7
 10
197.54670014252534
 20
176.34806040470323
 11
368.20121495984495
 21
99.553533684462309
  0
LINE
  8
_1-1_
  6
DASHED1
 62
    7
 10
197.54670014252534
 20
176.34806040470323
 11
151.9506225352965
 21
155.82983175709418
  0
POINT
  8
_1-1_
 62
    7
 10
169.6013606042122
 20
116.6059700074525
  0
POINT
  8
_1-1_
 62
    7
 10
215.19743574047692
 20
137.12420414609289
  0
LINE
  8
_1-1_
  6
CONTINUOUS
 62
    7
 10
169.6013606042122
 20
116.6059700074525
 11
154.46598312942825
 21
150.24014163708318
  0
LINE
  8
_1-1_
  6
CONTINUOUS
 62
    7
 10
215.19743574047692
 20
137.12420414609289
 11
200.06205826569294
 21
170.75837577572358
  0
LINE
  8
_1-1_
  6
CONTINUOUS
 62
    7
 10
169.6013606042122
 20
116.6059700074525
 11
215.19743574047692
 21
137.12420414609289
  0
TEXT
  8
_1-1_
 62
    7
 10
190.48436301334823
 20
126.55161404793633
 40
2.5
 41
1
 50
24.227745659999993
  1
250
  0
POINT
  8
_1-1_
 62
    7
 10
181.58996204470773
 20
141.13798837918603
  0
POINT
  8
_1-1_
 62
    7
 10
227.18603711651275
 20
120.61975409730125
  0
LINE
  8
_1-1_
  6
CONTINUOUS
 62
    7
 10
181.58996204470773
 20
141.13798837918603
 11
194.87139236794937
 21
170.65227726778357
  0
LINE
  8
_1-1_
  6
CONTINUOUS
 62
    7
 10
227.18603711651275
 20
120.61975409730125
 11
240.46746743975439
 21
150.13404298589882
  0
LINE
  8
_1-1_
  6
CONTINUOUS
 62
    7
 10
181.58996204470773
 20
141.13798837918603
 11
227.18603711651275
 21
120.61975409730125
  0
TEXT
  8
_1-1_
 62
    7
 10
210.39017457476768
 20
128.41237025017892
 40
2.5
 41
1
 50
-24.227745839999972
  1
250
  0
TEXT
  8
_1-3_
 62
    7
 10
129.18697254077807
 20
89.768953511114503
 40
2.5
 41
1
 50
0
  1
瓦桟
  0
TEXT
  8
_1-1_
 62
    7
 10
143.40452412876016
 20
86.440999689201604
 40
2.5
 41
1
 50
0
  1
※　地域により瓦桟木の大きさは、異なります
  0
LINE
  8
_1-3_
  6
CONTINUOUS
 62
    7
 10
125.77051935969173
 20
91.119950198720076
 11
112.16861600954211
 21
91.119950198720076
  0
TEXT
  8
_1-1_
 62
    7
 10
143.62013327108849
 20
69.81595013592694
 40
2.5
 41
1
 50
0
  1
硬質木片セメント板　ｔ＝25
  0
TEXT
  8
_0-0_
 62
    7
 10
14.594594336844779
 20
24.324324324324323
 40
2.5
 41
1
 50
0
  1
Ｓ形
  0
TEXT
  8
_1-3_
 62
    7
 10
45.821771363954269
 20
167.47469515413852
 40
2.5
 41
1
 50
0
  1
Ｓ形　桟瓦
  0
TEXT
  8
_1-1_
 62
    7
 10
143.17363803025933
 20
89.628148324653466
 40
2.5
 41
1
 50
0
  1
15×21以上　（防腐処理）
  0
TEXT
  8
_1-3_
 62
    7
 10
129.18697047877956
 20
81.815952610325169
 40
2.5
 41
1
 50
0
  1
縦桟
  0
TEXT
  8
_1-3_
 62
    7
 10
129.18696841678104
 20
75.815957559121628
 40
2.5
 41
1
 50
0
  1
ルーフィング
  0
TEXT
  8
_1-3_
 62
    7
 10
129.18697254077807
 20
63.815955084723399
 40
2.5
 41
1
 50
0
  1
たる木
  0
TEXT
  8
_1-1_
 62
    7
 10
145.01018071456605
 20
48.176294280035577
 40
2.5
 41
1
 50
0
  1
棟部分のルーフィングは、両方向へそれぞれ250ｍｍ以上重ね合わせること。
  0
TEXT
  8
_1-1_
 62
    7
 10
145.09797236363698
 20
44.064970279032622
 40
2.5
 41
1
 50
0
  1
隅棟部分のルーフィングは、重ね貼りの上に両方向へそれぞれ250ｍｍ以上増し貼りをすること。
  0
TEXT
  8
_1-3_
 62
    7
 10
336.77163201409417
 20
167.47469515413852
 40
2.5
 41
1
 50
0
  1
Ｓ形　桟瓦
  0
TEXT
  8
_1-1_
 62
    7
 10
138.57054659317112
 20
224.21258108366257
 40
2.5
 41
1
 50
0
  1
葺き土
  0
LINE
  8
ADD_LINE
  6
DOT
 62
    4
 10
197.54670014252534
 20
172.15101087415542
 11
197.54670014252534
 21
256.12063227953411
  0
ARC
  8
_1-4_
  6
CONTINUOUS
 62
    3
 10
149.41142822461518
 20
186.63461782974031
 40
35.836353171383905
 50
349.41771888390218
 51
22.957813407734495
  0
LINE
  8
_1-2_
  6
CONTINUOUS
 62
    3
 10
195.83805393528294
 20
178.10854525179477
 11
195.79659475875818
 21
178.24231579620445
  0
LINE
  8
_1-2_
  6
CONTINUOUS
 62
    3
 10
195.79659475875818
 20
178.24231579620445
 11
194.03129783836573
 21
183.93815324113177
  0
LINE
  8
ADD_LINE
  6
DOT
 62
    4
 10
195.83805393528294
 20
178.10854525179477
 11
196.6466996476457
 21
177.44823810726567
  0
ARC
  8
_1-4_
  6
CONTINUOUS
 62
    1
 10
149.41142822461518
 20
186.63461782974031
 40
35.836353171383905
 50
349.41771888390218
 51
22.957813407734495
  0
SOLID
  8
ADD_LINE
  6
DOT
 62
    8
 10
186.62152705508811
 20
190.66888943072544
 11
184.63828349683544
 21
180.05336595382761
 12
192.31795027449326
 22
182.71045581714529
 13
192.31795027449326
 23
182.71045581714529
  0
SOLID
  8
ADD_LINE
  6
DOT
 62
    8
 10
186.62152705508811
 20
190.66888943072544
 11
192.31795027449326
 21
182.71045581714529
 12
192.14021424989443
 22
183.28384811813768
 13
192.14021424989443
 23
183.28384811813768
  0
SOLID
  8
ADD_LINE
  6
DOT
 62
    8
 10
186.62152705508811
 20
190.66888943072544
 11
192.14021424989443
 21
183.28384811813768
 12
194.03129783836573
 22
183.93815324113177
 13
194.03129783836573
 23
183.93815324113177
  0
SOLID
  8
ADD_LINE
  6
DOT
 62
    8
 10
186.62152705508811
 20
190.66888943072544
 11
194.03129783836573
 21
183.93815324113177
 12
196.6466996476457
 22
204.35153033282307
 13
196.6466996476457
 23
204.35153033282307
  0
SOLID
  8
ADD_LINE
  6
DOT
 62
    8
 10
186.62152705508811
 20
190.66888943072544
 11
196.6466996476457
 21
204.35153033282307
 12
182.40926618673757
 22
200.61270419553696
 13
182.40926618673757
 23
200.61270419553696
  0
SOLID
  8
ADD_LINE
  6
DOT
 62
    8
 10
194.03129783836573
 20
183.93815324113177
 11
195.79659475875818
 21
178.24231579620445
 12
196.6466996476457
 22
204.35153033282307
 13
196.6466996476457
 23
177.44823810726567
  0
SOLID
  8
ADD_LINE
  6
DOT
 62
    8
 10
195.79659475875818
 20
178.24231579620445
 11
195.83805393528294
 21
178.10854525179477
 12
195.79659475875818
 22
178.24231579620445
 13
196.6466996476457
 23
177.44823810726567
  0
SOLID
  8
ADD_LINE
  6
DOT
 62
    8
 10
182.40926618673757
 20
200.61270419553696
 11
196.6466996476457
 21
204.35153033282307
 12
183.77638231055462
 22
202.05436916139314
 13
184.78881734976025
 23
202.9602320912087
  0
SOLID
  8
ADD_LINE
  6
DOT
 62
    8
 10
196.6466996476457
 20
204.35153033282307
 11
197.54670014252534
 21
207.51398855863377
 12
184.78881734976025
 22
202.9602320912087
 13
185.84388123272191
 23
203.77018012257321
  0
SOLID
  8
ADD_LINE
  6
DOT
 62
    8
 10
197.54670014252534
 20
207.51398855863377
 11
195.84034509351014
 21
207.44691789653049
 12
185.84388123272191
 22
203.77018012257321
 13
187.15471817821972
 23
204.63341420863276
  0
SOLID
  8
ADD_LINE
  6
DOT
 62
    8
 10
195.84034509351014
 20
207.44691789653049
 11
194.91316774181655
 21
207.34034578714042
 12
187.15471817821972
 22
204.63341420863276
 13
188.99841567066787
 23
205.63519203689935
  0
SOLID
  8
ADD_LINE
  6
DOT
 62
    8
 10
194.91316774181655
 20
207.34034578714042
 11
193.47444426505066
 21
207.09522993554327
 12
188.99841567066787
 22
205.63519203689935
 13
190.09610839738556
 23
206.09345210727665
  0
SOLID
  8
ADD_LINE
  6
DOT
 62
    8
 10
193.47444426505066
 20
207.09522993554327
 11
192.35543711645497
 21
206.85011408394612
 12
190.09610839738556
 22
206.09345210727665
 13
191.2790588116153
 23
206.54105496671491
  0
SOLID
  8
ADD_LINE
  6
DOT
 62
    8
 10
197.5467001425254
 20
207.51398855863377
 11
196.6466996476457
 21
204.35153033282307
 12
197.54670014252534
 22
207.51398855863377
 13
197.54670014252534
 23
204.35153033282307
  0
ARC
  8
_1-4_
  6
CONTINUOUS
 62
    3
 10
245.6819720604355
 20
186.63461782974031
 40
35.836353171383905
 50
157.04218659226552
 51
190.58228111609779
  0
LINE
  8
ADD_LINE
  6
DOT
 62
    4
 10
199.25534634976773
 20
178.10854525179477
 11
198.44670063740497
 21
177.44823810726567
  0
ARC
  8
_1-4_
  6
CONTINUOUS
 62
    1
 10
245.6819720604355
 20
186.63461782974031
 40
35.836353171383905
 50
157.04218659226552
 51
190.58228111609779
  0
SOLID
  8
ADD_LINE
  6
DOT
 62
    8
 10
208.47187322996257
 20
190.66888943072544
 11
210.45511678821524
 21
180.05336595382761
 12
202.77545001055742
 22
182.71045581714529
 13
202.77545001055742
 23
182.71045581714529
  0
SOLID
  8
ADD_LINE
  6
DOT
 62
    8
 10
208.47187322996257
 20
190.66888943072544
 11
202.77545001055742
 21
182.71045581714529
 12
202.95318603515625
 22
183.28384811813768
 13
202.95318603515625
 23
183.28384811813768
  0
SOLID
  8
ADD_LINE
  6
DOT
 62
    8
 10
208.47187322996257
 20
190.66888943072544
 11
202.95318603515625
 21
183.28384811813768
 12
201.06210244668495
 22
183.93815324113177
 13
201.06210244668495
 23
183.93815324113177
  0
SOLID
  8
ADD_LINE
  6
DOT
 62
    8
 10
208.47187322996257
 20
190.66888943072544
 11
201.06210244668495
 21
183.93815324113177
 12
198.44670063740497
 22
204.35153033282307
 13
198.44670063740497
 23
204.35153033282307
  0
SOLID
  8
ADD_LINE
  6
DOT
 62
    8
 10
208.47187322996257
 20
190.66888943072544
 11
198.44670063740497
 21
204.35153033282307
 12
212.68413409831311
 22
200.61270419553696
 13
212.68413409831311
 23
200.61270419553696
  0
SOLID
  8
ADD_LINE
  6
DOT
 62
    8
 10
201.06210244668495
 20
183.93815324113177
 11
199.2968055262925
 21
178.24231579620445
 12
198.44670063740497
 22
204.35153033282307
 13
198.44670063740497
 23
177.44823810726567
  0
SOLID
  8
ADD_LINE
  6
DOT
 62
    8
 10
199.2968055262925
 20
178.24231579620445
 11
199.25534634976773
 21
178.10854525179477
 12
199.2968055262925
 22
178.24231579620445
 13
198.44670063740497
 23
177.44823810726567
  0
SOLID
  8
ADD_LINE
  6
DOT
 62
    8
 10
212.68413409831311
 20
200.61270419553696
 11
198.44670063740497
 21
204.35153033282307
 12
211.31701797449605
 22
202.05436916139314
 13
210.30458293529043
 23
202.9602320912087
  0
SOLID
  8
ADD_LINE
  6
DOT
 62
    8
 10
198.44670063740497
 20
204.35153033282307
 11
197.54670014252534
 21
207.51398855863377
 12
210.30458293529043
 22
202.9602320912087
 13
209.24951905232876
 23
203.77018012257321
  0
SOLID
  8
ADD_LINE
  6
DOT
 62
    8
 10
197.54670014252534
 20
207.51398855863377
 11
199.25305519154057
 21
207.44691789653049
 12
209.24951905232876
 22
203.77018012257321
 13
207.93868210683095
 23
204.63341420863276
  0
SOLID
  8
ADD_LINE
  6
DOT
 62
    8
 10
199.25305519154057
 20
207.44691789653049
 11
200.18023254323413
 21
207.34034578714042
 12
207.93868210683095
 22
204.63341420863276
 13
206.09498461438281
 23
205.63519203689935
  0
SOLID
  8
ADD_LINE
  6
DOT
 62
    8
 10
200.18023254323413
 20
207.34034578714042
 11
201.61895602000001
 21
207.09522993554327
 12
206.09498461438281
 22
205.63519203689935
 13
204.99729188766511
 23
206.09345210727665
  0
SOLID
  8
ADD_LINE
  6
DOT
 62
    8
 10
201.61895602000001
 20
207.09522993554327
 11
202.73796316859571
 21
206.85011408394612
 12
204.99729188766511
 22
206.09345210727665
 13
203.81434147343538
 23
206.54105496671491
  0
SOLID
  8
ADD_LINE
  6
DOT
 62
    8
 10
197.54670014252528
 20
207.51398855863377
 11
198.44670063740497
 21
204.35153033282307
 12
197.54670014252534
 22
207.51398855863377
 13
197.54670014252534
 23
204.35153033282307
  0
ENDSEC
  0
EOF
