  0
SECTION
  2
HEADER
  9
$ACADVER
  1
AC1009
  9
$INSBASE
 10
0
 20
0
 30
0
  9
$EXTMIN
 10
0
 20
0
  9
$EXTMAX
 10
2100
 20
1485
  9
$LIMMIN
 10
0
 20
0
  9
$LIMMAX
 10
2100
 20
1485
  9
$LTSCALE
 40
5
  0
ENDSEC
  0
SECTION
  2
TABLES
  0
TABLE
  2
LTYPE
 70
     9
  0
LTYPE
  2
CONTINUOUS
 70
    64
  3
実線
 72
    65
 73
     0
 40
0.0
  0
LTYPE
  2
DASHED1
 70
    64
  3
--  --  --  --  --  --  --  --  
 72
    65
 73
     2
 40
2.5
 49
1.25
 49
-1.25
  0
LTYPE
  2
DASHED2
 70
    64
  3
----    ----    ----    ----    
 72
    65
 73
     2
 40
5.0
 49
2.5
 49
-2.5
  0
LTYPE
  2
DASHED3
 70
    64
  3
------  ------  ------  ------  
 72
    65
 73
     2
 40
5.0
 49
3.75
 49
-1.25
  0
LTYPE
  2
CENTER1
 70
    64
  3
----- - ----- - ----- - ----- - 
 72
    65
 73
     4
 40
10.0
 49
6.25
 49
-1.25
 49
1.25
 49
-1.25
  0
LTYPE
  2
CENTER2
 70
    64
  3
----------  --  ----------  --  
 72
    65
 73
     4
 40
20.0
 49
12.5
 49
-2.5
 49
2.5
 49
-2.5
  0
LTYPE
  2
PHANTOM1
 70
    64
  3
--- - - --- - - --- - - --- - - 
 72
    65
 73
     6
 40
10.0
 49
3.25
 49
-1.25
 49
1.25
 49
-1.25
 49
1.25
 49
-1.25
  0
LTYPE
  2
PHANTOM2
 70
    64
  3
--------  -  -  --------  -  -  
 72
    65
 73
     6
 40
20.0
 49
10.0
 49
-2.5
 49
1.25
 49
-2.5
 49
1.25
 49
-2.5
  0
LTYPE
  2
DOT
 70
    64
  3
-   -   -   -   -   -   -   -   
 72
    65
 73
     2
 40
2.5
 49
0.625
 49
-1.875
  0
LTYPE
  2
DUMMY
 70
    64
  3
ダミー
 72
    65
 73
     0
 40
0.0
  0
LTYPE
  2
RAND1
 70
    64
  3
ランダム線1
 72
    65
 73
     4
 40
10.0
 49
1.0
 49
-2.0
 49
3.0
 49
-4.0
  0
LTYPE
  2
RAND2
 70
    64
  3
ランダム線2
 72
    65
 73
     4
 40
14.0
 49
2.0
 49
-3.0
 49
4.0
 49
-5.0
  0
LTYPE
  2
RAND3
 70
    64
  3
ランダム線3
 72
    65
 73
     4
 40
18.0
 49
3.0
 49
-4.0
 49
5.0
 49
-6.0
  0
LTYPE
  2
RAND4
 70
    64
  3
ランダム線4
 72
    65
 73
     4
 40
22.0
 49
4.0
 49
-5.0
 49
6.0
 49
-7.0
  0
LTYPE
  2
RAND5
 70
    64
  3
ランダム線5
 72
    65
 73
     4
 40
26.0
 49
5.0
 49
-6.0
 49
7.0
 49
-8.0
  0
LTYPE
  2
LONG1
 70
    64
  3
----------  --  ----------  --  
 72
    65
 73
     4
 40
40.0
 49
32.5
 49
-2.5
 49
2.5
 49
-2.5
  0
LTYPE
  2
LONG2
 70
    64
  3
--------  -  -  --------  -  -  
 72
    65
 73
     6
 40
40.0
 49
30.0
 49
-2.5
 49
1.25
 49
-2.5
 49
1.25
 49
-2.5
  0
LTYPE
  2
LONG3
 70
    64
  3
+++++++++++++++..+++++++++++++++
 72
    65
 73
     2
 40
40.0
 49
37.5
 49
-2.5
  0
LTYPE
  2
LONG4
 70
    64
  3
+++++++++++++++..+++++++++++++++
 72
    65
 73
     2
 40
80.0
 49
75.0
 49
-5.0
  0
LTYPE
  2
LONG5
 70
    64
  3
----------  --  ----------  --  
 72
    65
 73
     4
 40
60.0
 49
37.5
 49
-7.5
 49
7.5
 49
-7.5
  0
LTYPE
  2
dashed
 70
   64
  3
-------   -------------   ------
 72
   65
 73
    2
 40
7.5
 49
6
 49
-1.5
  0
LTYPE
  2
dashed_spaced
 70
   64
  3
----        --------        ----
 72
   65
 73
    2
 40
12
 49
6
 49
-6
  0
LTYPE
  2
long_dashed_dotted
 70
   64
  3
------------- --- --------------
 72
   65
 73
    4
 40
15.25
 49
12
 49
-1.5
 49
0.25
 49
-1.5
  0
LTYPE
  2
long_dashed_double-dotted
 70
   64
  3
----------- --- --- ------------
 72
   65
 73
    6
 40
17
 49
12
 49
-1.5
 49
0.25
 49
-1.5
 49
0.25
 49
-1.5
  0
LTYPE
  2
long_dashed_triplicate-dotted
 70
   64
  3
--------- --- --- --- ----------
 72
   65
 73
    8
 40
18.75
 49
12
 49
-1.5
 49
0.25
 49
-1.5
 49
0.25
 49
-1.5
 49
0.25
 49
-1.5
  0
LTYPE
  2
dotted
 70
   64
  3
   -       -       -       -    
 72
   65
 73
    2
 40
1.75
 49
0.25
 49
-1.5
  0
LTYPE
  2
chain
 70
   64
  3
-------------- -- --------------
 72
   65
 73
    4
 40
18.5
 49
12
 49
-1.5
 49
3.5
 49
-1.5
  0
LTYPE
  2
chain_double_dash
 70
   64
  3
------------ -- -- -------------
 72
   65
 73
    6
 40
23.5
 49
12
 49
-1.5
 49
3.5
 49
-1.5
 49
3.5
 49
-1.5
  0
LTYPE
  2
dashed_dotted
 70
   64
  3
-----------     -     ----------
 72
   65
 73
    4
 40
9.25
 49
6
 49
-1.5
 49
0.25
 49
-1.5
  0
LTYPE
  2
double-dashed_dotted
 70
   64
  3
------   -----------   -   -----
 72
   65
 73
    6
 40
16.75
 49
6
 49
-1.5
 49
6
 49
-1.5
 49
0.25
 49
-1.5
  0
LTYPE
  2
dashed_double-dotted
 70
   64
  3
---------    -    -    ---------
 72
   65
 73
    6
 40
11
 49
6
 49
-1.5
 49
0.25
 49
-1.5
 49
0.25
 49
-1.5
  0
LTYPE
  2
double-dashed_double-dotted
 70
   64
  3
-----   ---------   -   -   ----
 72
   65
 73
    8
 40
18.5
 49
6
 49
-1.5
 49
6
 49
-1.5
 49
0.25
 49
-1.5
 49
0.25
 49
-1.5
  0
LTYPE
  2
dashed_triplicate-dotted
 70
   64
  3
-------    -    -    -    ------
 72
   65
 73
    8
 40
12.75
 49
6
 49
-1.5
 49
0.25
 49
-1.5
 49
0.25
 49
-1.5
 49
0.25
 49
-1.5
  0
LTYPE
  2
double-dashed_triplicate-dotted
 70
   64
  3
-----  ---------  -  -  -  -----
 72
   65
 73
   10
 40
20.25
 49
6
 49
-1.5
 49
6
 49
-1.5
 49
0.25
 49
-1.5
 49
0.25
 49
-1.5
 49
0.25
 49
-1.5
  0
LTYPE
  2
undefined
 70
   64
  3
--------------------------------
 72
   65
 73
    0
 40
0
  0
ENDTAB
  0
TABLE
  2
STYLE
  5
3
100
AcDbSymbolTable
 70
     1
  0
STYLE
  5
10
100
AcDbSymbolTableRecord
100
AcDbTextStyleTableRecord
  2
STANDARD
 70
     0
 40
0.0
 41
1.0
 50
0.0
 71
     0
 42
0.2
  3
txt
  4
bigfont.shx
  0
STYLE
  5
26
100
AcDbSymbolTableRecord
100
AcDbTextStyleTableRecord
  2
TATEGAKI
 70
    68
 40
0.0
 41
1.0
 50
0.0
 71
     0
 42
1.0
  3
txt
  4
bigfont.shx
  0
ENDTAB
  0
TABLE
  2
LAYER
 70
   10
  0
LAYER
  2
_0-0_
 70
   64
 62
    7
  6
CONTINUOUS
  0
LAYER
  2
_0-1_
 70
   64
 62
    7
  6
CONTINUOUS
  0
LAYER
  2
_0-2_
 70
   64
 62
    7
  6
CONTINUOUS
  0
LAYER
  2
_0-3_
 70
   64
 62
    7
  6
CONTINUOUS
  0
LAYER
  2
_0-4_下地
 70
   64
 62
    7
  6
CONTINUOUS
  0
LAYER
  2
_0-5_
 70
   64
 62
    7
  6
CONTINUOUS
  0
LAYER
  2
_0-6_
 70
   64
 62
    7
  6
CONTINUOUS
  0
LAYER
  2
_0-7_
 70
   64
 62
    7
  6
CONTINUOUS
  0
LAYER
  2
_1-0_
 70
   64
 62
    7
  6
CONTINUOUS
  0
LAYER
  2
ADD_LINE
 70
   64
 62
    7
  6
CONTINUOUS
  0
ENDTAB
  0
ENDSEC
  0
SECTION
  2
BLOCKS
  0
ENDSEC
  0
SECTION
  2
ENTITIES
  0
LINE
  8
_1-0_
  6
CONTINUOUS
 62
    5
 10
41.891871271906638
 20
1425
 11
2041.8919743718329
 21
1425
  0
LINE
  8
_1-0_
  6
CONTINUOUS
 62
    5
 10
2041.8919743718329
 20
75
 11
41.891871271906638
 21
75
  0
LINE
  8
_1-0_
  6
CONTINUOUS
 62
    5
 10
2041.8919743718329
 20
174.99998969000742
 11
41.891809411951044
 21
174.99998969000742
  0
LINE
  8
_1-0_
  6
CONTINUOUS
 62
    5
 10
1866.8921393317146
 20
75
 11
1866.8921393317146
 21
174.99998969000742
  0
LINE
  8
_1-0_
  6
CONTINUOUS
 62
    5
 10
693.24330510319896
 20
174.99998969000742
 11
693.24330510319896
 21
75
  0
LINE
  8
_1-0_
  6
CONTINUOUS
 62
    5
 10
1082.4324324324325
 20
174.99998969000742
 11
1082.4324324324325
 21
75
  0
LINE
  8
_1-0_
  6
CONTINUOUS
 62
    5
 10
693.24330510319896
 20
124.99999484500371
 11
1082.4324324324325
 21
124.99999484500371
  0
LINE
  8
_1-0_
  6
CONTINUOUS
 62
    5
 10
1990.5406642604521
 20
154.05405405405403
 11
1927.7025789827915
 21
91.216223948710677
  0
LINE
  8
_0-2_
  6
CONTINUOUS
 62
    7
 10
696.96943953230573
 20
706.9976806640625
 11
668.57275060705228
 21
706.9976806640625
  0
LINE
  8
_0-5_
  6
CONTINUOUS
 62
    7
 10
650.71130701013522
 20
721.21340777422927
 11
670.71112555426521
 21
721.21340777422927
  0
LINE
  8
_0-5_
  6
CONTINUOUS
 62
    7
 10
794.65694942989876
 20
743.99772850242823
 11
794.65694942989876
 21
733.93719647381761
  0
LINE
  8
_0-5_
  6
CONTINUOUS
 62
    7
 10
794.65694942989876
 20
725.99771860483531
 11
794.65694942989876
 21
722.99769633525125
  0
LINE
  8
_0-5_
  6
CONTINUOUS
 62
    3
 10
790.71127401815886
 20
722.99769633525125
 11
674.0745750633447
 21
722.99769633525125
  0
LINE
  8
_0-5_
  6
CONTINUOUS
 62
    3
 10
790.71127401815886
 20
742.36839913033145
 11
768.31599055109803
 21
742.36839913033145
  0
LINE
  8
_0-5_
  6
CONTINUOUS
 62
    3
 10
790.71127401815886
 20
742.36839913033145
 11
790.71127401815886
 21
722.99769633525125
  0
LINE
  8
_0-5_
  6
CONTINUOUS
 62
    3
 10
768.31599055109803
 20
742.36839913033145
 11
772.07633353568417
 21
737.5955323915224
  0
LINE
  8
_0-6_
  6
CONTINUOUS
 62
    7
 10
692.83917401288011
 20
586.99771778003594
 11
692.83917401288011
 21
706.9976806640625
  0
LINE
  8
_0-6_
  6
CONTINUOUS
 62
    7
 10
692.83917401288011
 20
706.9976806640625
 11
647.83902554898646
 21
706.9976806640625
  0
LINE
  8
_0-6_
  6
CONTINUOUS
 62
    7
 10
647.83902554898646
 20
706.9976806640625
 11
647.83902554898646
 21
586.99771778003594
  0
LINE
  8
_0-6_
  6
CONTINUOUS
 62
    7
 10
647.83902554898646
 20
586.99771778003594
 11
692.83917401288011
 21
586.99771778003594
  0
LINE
  8
_0-6_
  6
CONTINUOUS
 62
    7
 10
692.83917401288011
 20
706.9976806640625
 11
647.83902554898646
 21
586.99771778003594
  0
LINE
  8
_0-7_
  6
CONTINUOUS
 62
    7
 10
607.17872413429052
 20
722.99769633525125
 11
542.04192290434969
 21
722.99769633525125
  0
LINE
  8
_0-7_
  6
CONTINUOUS
 62
    7
 10
790.71127401815886
 20
554.8187255859375
 11
674.0745750633447
 21
554.8187255859375
  0
LINE
  8
_0-7_
  6
CONTINUOUS
 62
    7
 10
790.71127401815886
 20
675.78296145877334
 11
790.71127401815886
 21
554.8187255859375
  0
LINE
  8
_0-7_
  6
CONTINUOUS
 62
    7
 10
674.0745750633447
 20
675.78296145877334
 11
674.0745750633447
 21
554.8187255859375
  0
LINE
  8
_0-7_
  6
CONTINUOUS
 62
    7
 10
757.20643739442562
 20
806.76189113307646
 11
714.59779481630062
 21
815.85060325828761
  0
LINE
  8
_0-7_
  6
CONTINUOUS
 62
    7
 10
739.18923042915958
 20
730.9901263262775
 11
832.7152973896749
 21
474.02922140585412
  0
LINE
  8
_0-4_下地
  6
CONTINUOUS
 62
    7
 10
815.83111737225511
 20
743.99772850242823
 11
855.89484137457771
 21
743.99772850242823
  0
LINE
  8
ADD_LINE
  6
DOT
 62
    7
 10
977.05548260663011
 20
794.51009389516469
 11
978.71524707691094
 21
794.51009389516469
  0
LINE
  8
ADD_LINE
  6
DOT
 62
    7
 10
1075.831109124261
 20
743.99772850242823
 11
1115.8948331265838
 21
743.99772850242823
  0
LINE
  8
ADD_LINE
  6
DOT
 62
    7
 10
1075.831109124261
 20
743.99772850242823
 11
1050.6111763619087
 21
743.99772850242823
  0
LINE
  8
ADD_LINE
  6
DOT
 62
    7
 10
1005.8219703468117
 20
776.27520174593542
 11
1003.8133157266154
 21
776.27520174593542
  0
LINE
  8
_0-4_下地
  6
CONTINUOUS
 62
    7
 10
1335.8311008762669
 20
743.99772850242823
 11
1375.8948248785896
 21
743.99772850242823
  0
LINE
  8
_0-4_下地
  6
CONTINUOUS
 62
    7
 10
1335.8311008762669
 20
743.99772850242823
 11
1310.6111681139148
 21
743.99772850242823
  0
LINE
  8
ADD_LINE
  6
DOT
 62
    7
 10
1542.7451056403083
 20
699.2745889199748
 11
1542.7451056403083
 21
697.98245816617396
  0
LINE
  8
ADD_LINE
  6
DOT
 62
    7
 10
1595.8310926282729
 20
743.99772850242823
 11
1635.8948166305956
 21
743.99772850242823
  0
LINE
  8
ADD_LINE
  6
DOT
 62
    7
 10
1595.8310926282729
 20
743.99772850242823
 11
1570.6110361460094
 21
743.99772850242823
  0
LINE
  8
_0-2_
  6
CONTINUOUS
 62
    7
 10
725.53110895930115
 20
706.9976806640625
 11
688.65694613070104
 21
706.9976806640625
  0
LINE
  8
_0-2_
  6
CONTINUOUS
 62
    7
 10
725.53110895930115
 20
718.99770788244291
 11
688.65694613070104
 21
718.99770788244291
  0
LINE
  8
_0-2_
  6
CONTINUOUS
 62
    7
 10
688.65694613070104
 20
706.9976806640625
 11
748.65689664273657
 21
706.9976806640625
  0
LINE
  8
_0-1_
  6
CONTINUOUS
 62
    7
 10
696.74507347313136
 20
706.9976806640625
 11
1730.758790712099
 21
706.9976806640625
  0
LINE
  8
_0-1_
  6
CONTINUOUS
 62
    7
 10
790.61118460990292
 20
722.99769633525125
 11
1730.758790712099
 21
722.99769633525125
  0
LINE
  8
_0-1_
  6
CONTINUOUS
 62
    7
 10
696.74507347313136
 20
718.99770788244291
 11
1730.758790712099
 21
718.99770788244291
  0
LINE
  8
_0-2_
  6
CONTINUOUS
 62
    7
 10
932.87089579814187
 20
646.99766829207135
 11
932.87089579814187
 21
706.9976806640625
  0
LINE
  8
_0-2_
  6
CONTINUOUS
 62
    7
 10
932.87089579814187
 20
706.9976806640625
 11
992.87084631017751
 21
706.9976806640625
  0
LINE
  8
_0-2_
  6
CONTINUOUS
 62
    7
 10
992.87084631017751
 20
706.9976806640625
 11
992.87084631017751
 21
646.99766829207135
  0
LINE
  8
_0-2_
  6
CONTINUOUS
 62
    7
 10
992.87084631017751
 20
646.99766829207135
 11
932.87089579814187
 21
646.99766829207135
  0
LINE
  8
_0-2_
  6
CONTINUOUS
 62
    7
 10
1235.8708562077704
 20
646.99766829207135
 11
1235.8708562077704
 21
706.9976806640625
  0
LINE
  8
_0-2_
  6
CONTINUOUS
 62
    7
 10
1235.8708562077704
 20
706.9976806640625
 11
1295.8708067198058
 21
706.9976806640625
  0
LINE
  8
_0-2_
  6
CONTINUOUS
 62
    7
 10
1295.8708067198058
 20
706.9976806640625
 11
1295.8708067198058
 21
646.99766829207135
  0
LINE
  8
_0-2_
  6
CONTINUOUS
 62
    7
 10
1295.8708067198058
 20
646.99766829207135
 11
1235.8708562077704
 21
646.99766829207135
  0
LINE
  8
_0-2_
  6
CONTINUOUS
 62
    7
 10
1538.8708166173988
 20
646.99766829207135
 11
1538.8708166173988
 21
706.9976806640625
  0
LINE
  8
_0-2_
  6
CONTINUOUS
 62
    7
 10
1538.8708166173988
 20
706.9976806640625
 11
1598.8707671294342
 21
706.9976806640625
  0
LINE
  8
_0-2_
  6
CONTINUOUS
 62
    7
 10
1598.8707671294342
 20
706.9976806640625
 11
1598.8707671294342
 21
646.99766829207135
  0
LINE
  8
_0-2_
  6
CONTINUOUS
 62
    7
 10
1598.8707671294342
 20
646.99766829207135
 11
1538.8708166173988
 21
646.99766829207135
  0
LINE
  8
_0-2_
  6
CONTINUOUS
 62
    7
 10
932.87089579814187
 20
706.9976806640625
 11
992.87084631017751
 21
646.99766829207135
  0
LINE
  8
_0-2_
  6
CONTINUOUS
 62
    7
 10
1235.8708562077704
 20
706.9976806640625
 11
1295.8708067198058
 21
646.99766829207135
  0
LINE
  8
_0-2_
  6
CONTINUOUS
 62
    7
 10
1538.8708166173988
 20
706.9976806640625
 11
1598.8707671294342
 21
646.99766829207135
  0
LINE
  8
_0-2_
  6
CONTINUOUS
 62
    7
 10
927.74505615234375
 20
722.99769633525125
 11
927.74505615234375
 21
725.99765674487969
  0
LINE
  8
_0-2_
  6
CONTINUOUS
 62
    7
 10
927.74505615234375
 20
725.99765674487969
 11
977.74509739231416
 21
725.99765674487969
  0
LINE
  8
_0-2_
  6
CONTINUOUS
 62
    7
 10
977.74509739231416
 20
725.99765674487969
 11
977.74509739231416
 21
722.99769633525125
  0
LINE
  8
_0-2_
  6
CONTINUOUS
 62
    7
 10
977.74509739231416
 20
722.99769633525125
 11
927.74505615234375
 21
722.99769633525125
  0
LINE
  8
_0-2_
  6
CONTINUOUS
 62
    7
 10
927.74505615234375
 20
725.99765674487969
 11
977.74509739231416
 21
722.99769633525125
  0
LINE
  8
_0-2_
  6
CONTINUOUS
 62
    7
 10
1187.7450479043498
 20
722.99769633525125
 11
1187.7450479043498
 21
725.99765674487969
  0
LINE
  8
_0-2_
  6
CONTINUOUS
 62
    7
 10
1187.7450479043498
 20
725.99765674487969
 11
1237.7450891443202
 21
725.99765674487969
  0
LINE
  8
_0-2_
  6
CONTINUOUS
 62
    7
 10
1237.7450891443202
 20
725.99765674487969
 11
1237.7450891443202
 21
722.99769633525125
  0
LINE
  8
_0-2_
  6
CONTINUOUS
 62
    7
 10
1237.7450891443202
 20
722.99769633525125
 11
1187.7450479043498
 21
722.99769633525125
  0
LINE
  8
_0-2_
  6
CONTINUOUS
 62
    7
 10
1187.7450479043498
 20
725.99765674487969
 11
1237.7450891443202
 21
722.99769633525125
  0
LINE
  8
_0-2_
  6
CONTINUOUS
 62
    7
 10
1447.7450396563559
 20
722.99769633525125
 11
1447.7450396563559
 21
725.99765674487969
  0
LINE
  8
_0-2_
  6
CONTINUOUS
 62
    7
 10
1447.7450396563559
 20
725.99765674487969
 11
1497.7449571764148
 21
725.99765674487969
  0
LINE
  8
_0-2_
  6
CONTINUOUS
 62
    7
 10
1497.7449571764148
 20
725.99765674487969
 11
1497.7449571764148
 21
722.99769633525125
  0
LINE
  8
_0-2_
  6
CONTINUOUS
 62
    7
 10
1497.7449571764148
 20
722.99769633525125
 11
1447.7450396563559
 21
722.99769633525125
  0
LINE
  8
_0-2_
  6
CONTINUOUS
 62
    7
 10
1447.7450396563559
 20
725.99765674487969
 11
1497.7449571764148
 21
722.99769633525125
  0
LINE
  8
_0-5_
  6
CONTINUOUS
 62
    7
 10
1208.5972966374579
 20
927.11396088471292
 11
1191.1234675226985
 21
927.11396088471292
  0
LINE
  8
_0-5_
  6
CONTINUOUS
 62
    7
 10
1204.6474147487331
 20
731.74147734770918
 11
1325.436525087099
 21
399.87614605877855
  0
LINE
  8
_0-5_
  6
CONTINUOUS
 62
    7
 10
1346.5861964870144
 20
399.87614605877855
 11
1325.436525087099
 21
399.87614605877855
  0
LINE
  8
_0-5_
  6
CONTINUOUS
 62
    7
 10
1346.5861964870144
 20
419.75193539181276
 11
1318.2023744325379
 21
419.75193539181276
  0
LINE
  8
_0-5_
  6
CONTINUOUS
 62
    7
 10
1346.5861964870144
 20
438.43518849965687
 11
1311.4022332268792
 21
438.43518849965687
  0
LINE
  8
_0-5_
  6
CONTINUOUS
 62
    7
 10
1346.5861964870144
 20
460.29860006796349
 11
1303.4445685309333
 21
460.29860006796349
  0
LINE
  8
_0-5_
  6
CONTINUOUS
 62
    7
 10
1346.5861964870144
 20
479.77687732593438
 11
1296.3550464527029
 21
479.77687732593438
  0
LINE
  8
ADD_LINE
  6
DOT
 62
    7
 10
884.05312203072208
 20
743.99772850242823
 11
803.01163132126271
 21
743.99772850242823
  0
LINE
  8
_0-1_
  6
CONTINUOUS
 62
    7
 10
884.05312203072208
 20
722.99769633525125
 11
765.87091394372897
 21
722.99769633525125
  0
LINE
  8
_0-7_
  6
CONTINUOUS
 62
    7
 10
794.65694942989876
 20
743.99772850242823
 11
794.65694942989876
 21
722.99769633525125
  0
LINE
  8
_0-2_
  6
CONTINUOUS
 62
    7
 10
819.39722009607272
 20
743.99772850242823
 11
794.65694942989876
 21
743.99772850242823
  0
LINE
  8
_0-2_
  6
CONTINUOUS
 62
    7
 10
819.39722009607272
 20
725.99771860483531
 11
794.65694942989876
 21
725.99771860483531
  0
LINE
  8
_0-2_
  6
CONTINUOUS
 62
    7
 10
819.39722009607272
 20
722.99769633525125
 11
794.65694942989876
 21
722.99769633525125
  0
LINE
  8
_0-2_
  6
DASHED1
 62
    3
 10
756.82414286845437
 20
721.32116781698699
 11
1730.758790712099
 21
721.32116781698699
  0
LINE
  8
_0-2_
  6
CONTINUOUS
 62
    7
 10
932.87089579814187
 20
646.99766829207135
 11
992.87084631017751
 21
646.99766829207135
  0
LINE
  8
_0-2_
  6
CONTINUOUS
 62
    7
 10
1235.8708562077704
 20
646.99766829207135
 11
1295.8708067198058
 21
646.99766829207135
  0
LINE
  8
_0-2_
  6
CONTINUOUS
 62
    7
 10
1538.8708166173988
 20
646.99766829207135
 11
1598.8707671294342
 21
646.99766829207135
  0
LINE
  8
_0-7_
  6
CONTINUOUS
 62
    7
 10
832.7152973896749
 20
474.02922140585412
 11
849.75332311681791
 21
474.02922140585412
  0
LINE
  8
_0-5_
  6
CONTINUOUS
 62
    7
 10
815.87083146378802
 20
725.99771860483531
 11
794.65694942989876
 21
725.99771860483531
  0
LINE
  8
_1-0_
  6
CONTINUOUS
 62
    7
 10
884.05312203072208
 20
706.9976806640625
 11
647.83902554898646
 21
706.9976806640625
  0
LINE
  8
_0-1_
  6
CONTINUOUS
 62
    7
 10
884.05312203072208
 20
718.99770788244291
 11
647.83902554898646
 21
718.99770788244291
  0
LINE
  8
_0-5_
  6
DASHED1
 62
    3
 10
884.05312203072208
 20
720.74302467140001
 11
647.83902554898646
 21
720.74302467140001
  0
LINE
  8
_0-1_
  6
CONTINUOUS
 62
    7
 10
884.05312203072208
 20
725.99771860483531
 11
794.65694942989876
 21
725.99771860483531
  0
LINE
  8
_0-4_下地
  6
CONTINUOUS
 62
    7
 10
815.83111737225511
 20
743.99772850242823
 11
794.65694942989876
 21
743.99772850242823
  0
LINE
  8
_0-1_
  6
CONTINUOUS
 62
    7
 10
794.65694942989876
 20
725.99771860483531
 11
1730.758790712099
 21
725.99771860483531
  0
LINE
  8
_0-5_
  6
CONTINUOUS
 62
    7
 10
790.61118460990292
 20
722.99769633525125
 11
815.87083146378802
 21
722.99769633525125
  0
LINE
  8
_0-7_
  6
CONTINUOUS
 62
    3
 10
765.87091394372897
 20
722.99769633525125
 11
790.61118460990292
 21
722.99769633525125
  0
LINE
  8
_0-2_
  6
CONTINUOUS
 62
    7
 10
794.65694942989876
 20
722.99769633525125
 11
794.65694942989876
 21
725.99765674487969
  0
LINE
  8
_0-2_
  6
CONTINUOUS
 62
    7
 10
794.65694942989876
 20
725.99765674487969
 11
844.65699066986917
 21
725.99765674487969
  0
LINE
  8
_0-2_
  6
CONTINUOUS
 62
    7
 10
844.65699066986917
 20
725.99765674487969
 11
844.65699066986917
 21
722.99769633525125
  0
LINE
  8
_0-2_
  6
CONTINUOUS
 62
    7
 10
844.65699066986917
 20
722.99769633525125
 11
794.65694942989876
 21
722.99769633525125
  0
LINE
  8
_0-2_
  6
CONTINUOUS
 62
    7
 10
794.65694942989876
 20
725.99765674487969
 11
844.65699066986917
 21
722.99769633525125
  0
LINE
  8
_0-5_
  6
CONTINUOUS
 62
    7
 10
794.65694942989876
 20
733.93719647381761
 11
794.65694942989876
 21
722.99769633525125
  0
LINE
  8
_0-7_
  6
CONTINUOUS
 62
    7
 10
739.18923042915958
 20
730.9901263262775
 11
733.15701871304907
 21
722.99769633525125
  0
LINE
  8
_0-7_
  6
CONTINUOUS
 62
    7
 10
459.38458829312714
 20
722.99769633525125
 11
607.17872413429052
 21
722.99769633525125
  0
LINE
  8
_0-5_
  6
CONTINUOUS
 62
    7
 10
647.83902554898646
 20
1128.5276258313979
 11
647.83902554898646
 21
420.18582112080344
  0
LINE
  8
_0-6_
  6
CONTINUOUS
 62
    7
 10
672.45334934543916
 20
881.48321203283376
 11
672.45334934543916
 21
1128.5276258313979
  0
LINE
  8
_0-6_
  6
CONTINUOUS
 62
    7
 10
684.45319098395271
 20
881.48321203283376
 11
684.45319098395271
 21
1128.5276258313979
  0
LINE
  8
_0-5_
  6
CONTINUOUS
 62
    7
 10
670.71112555426521
 20
721.21340777422927
 11
670.71112555426521
 21
850.40489402977198
  0
LINE
  8
_0-5_
  6
CONTINUOUS
 62
    7
 10
670.71112555426521
 20
850.40489402977198
 11
650.71130701013522
 21
850.40489402977198
  0
LINE
  8
_0-5_
  6
CONTINUOUS
 62
    7
 10
650.71130701013522
 20
850.40489402977198
 11
650.71130701013522
 21
721.21340777422927
  0
LINE
  8
_0-5_
  6
CONTINUOUS
 62
    7
 10
650.71130701013522
 20
721.21340777422927
 11
670.71112555426521
 21
850.40489402977198
  0
LINE
  8
ADD_LINE
  6
DOT
 62
    3
 10
670.71112555426521
 20
850.40489402977198
 11
684.92976008234803
 21
850.40489402977198
  0
LINE
  8
_0-5_
  6
CONTINUOUS
 62
    3
 10
674.0745750633447
 20
850.40489402977198
 11
691.96496911951022
 21
843.86017258102834
  0
LINE
  8
_0-5_
  6
CONTINUOUS
 62
    3
 10
674.0745750633447
 20
722.99769633525125
 11
674.0745750633447
 21
850.40489402977198
  0
LINE
  8
_0-5_
  6
CONTINUOUS
 62
    7
 10
659.1888427734375
 20
876.95976463524073
 11
654.03541358741563
 21
862.8727680927999
  0
LINE
  8
_0-5_
  6
CONTINUOUS
 62
    7
 10
738.55739284206084
 20
831.95268785631345
 11
743.71057458826022
 21
846.03968439875428
  0
LINE
  8
_0-5_
  6
CONTINUOUS
 62
    7
 10
743.71057458826022
 20
846.03968439875428
 11
659.1888427734375
 21
876.95976463524073
  0
LINE
  8
_0-5_
  6
CONTINUOUS
 62
    7
 10
743.71057458826022
 20
846.03968439875428
 11
654.03541358741563
 21
862.8727680927999
  0
LINE
  8
_0-5_
  6
CONTINUOUS
 62
    3
 10
750.99347088788011
 20
846.70177150417021
 11
652.45328336148646
 21
882.7500420647699
  0
LINE
  8
_0-5_
  6
CONTINUOUS
 62
    3
 10
652.45328336148646
 20
882.7500420647699
 11
652.45328336148646
 21
949.54289616765209
  0
LINE
  8
_0-5_
  6
CONTINUOUS
 62
    3
 10
750.99347088788011
 20
846.70177150417021
 11
745.80317316828553
 21
825.47168216189834
  0
LINE
  8
_0-5_
  6
CONTINUOUS
 62
    7
 10
654.03541358741563
 20
862.8727680927999
 11
738.55739284206084
 21
831.95268785631345
  0
LINE
  8
_0-6_
  6
CONTINUOUS
 62
    7
 10
684.45319098395271
 20
881.48321203283376
 11
672.45334934543916
 21
881.48321203283376
  0
LINE
  8
_0-6_
  6
CONTINUOUS
 62
    7
 10
672.45334934543916
 20
906.121351912215
 11
672.45334934543916
 21
946.12129830025333
  0
LINE
  8
_0-6_
  6
CONTINUOUS
 62
    7
 10
672.45334934543916
 20
946.12129830025333
 11
652.45328336148646
 21
946.12129830025333
  0
LINE
  8
_0-6_
  6
CONTINUOUS
 62
    7
 10
652.45328336148646
 20
946.12129830025333
 11
652.45328336148646
 21
906.121351912215
  0
LINE
  8
_0-6_
  6
CONTINUOUS
 62
    7
 10
652.45328336148646
 20
906.121351912215
 11
672.45334934543916
 21
906.121351912215
  0
LINE
  8
_0-6_
  6
CONTINUOUS
 62
    7
 10
672.45334934543916
 20
946.12129830025333
 11
652.45328336148646
 21
906.121351912215
  0
LINE
  8
_0-7_
  6
CONTINUOUS
 62
    7
 10
542.04192290434969
 20
722.99769633525125
 11
542.04192290434969
 21
850.40489402977198
  0
LINE
  8
_0-7_
  6
CONTINUOUS
 62
    7
 10
607.17872413429052
 20
850.40489402977198
 11
542.04192290434969
 21
850.40489402977198
  0
LINE
  8
_0-7_
  6
CONTINUOUS
 62
    7
 10
730.2696434227197
 20
842.05819207268803
 11
776.44735800253386
 21
968.93054859058282
  0
LINE
  8
_0-7_
  6
CONTINUOUS
 62
    7
 10
794.26401499155406
 20
887.76830724767751
 11
757.20643739442562
 21
806.76189113307646
  0
LINE
  8
_0-7_
  6
CONTINUOUS
 62
    7
 10
794.26401499155406
 20
887.76830724767751
 11
807.73587613492407
 21
924.78196427628802
  0
LINE
  8
_0-7_
  6
CONTINUOUS
 62
    7
 10
712.74310962573907
 20
1118.1399783572635
 11
732.16119714685397
 21
1118.1399783572635
  0
LINE
  8
_0-7_
  6
CONTINUOUS
 62
    3
 10
652.45328336148646
 20
949.54289616765209
 11
652.45328336148646
 21
1032.6995024809967
  0
LINE
  8
_0-7_
  6
CONTINUOUS
 62
    7
 10
542.04192290434969
 20
882.7500420647699
 11
542.04192290434969
 21
1032.7499802048142
  0
LINE
  8
_0-7_
  6
CONTINUOUS
 62
    7
 10
607.17872413429052
 20
882.7500420647699
 11
542.04192290434969
 21
882.7500420647699
  0
LINE
  8
_0-7_
  6
CONTINUOUS
 62
    7
 10
607.17872413429052
 20
1032.7499802048142
 11
542.04192290434969
 21
1032.7499802048142
  0
LINE
  8
_0-7_
  6
CONTINUOUS
 62
    7
 10
704.1496483055322
 20
864.26028689822647
 11
769.1384805215373
 21
1042.8159559095229
  0
LINE
  8
_0-7_
  6
CONTINUOUS
 62
    7
 10
769.1384805215373
 20
1042.8159559095229
 11
784.32497591585729
 21
1042.8159559095229
  0
LINE
  8
_0-7_
  6
CONTINUOUS
 62
    7
 10
776.44735800253386
 20
968.93054859058282
 11
785.99197800095021
 21
968.93054859058282
  0
LINE
  8
_0-7_
  6
CONTINUOUS
 62
    7
 10
807.73587613492407
 20
924.78196427628802
 11
817.66526505753802
 21
924.78196427628802
  0
LINE
  8
_0-7_
  6
CONTINUOUS
 62
    7
 10
684.45319098395271
 20
1040.4139338312923
 11
712.74310962573907
 21
1118.1399783572635
  0
LINE
  8
_0-5_
  6
DASHED1
 62
    3
 10
650.10755384290542
 20
720.74302467140001
 11
650.10755384290542
 21
1082.7500214447846
  0
LINE
  8
_0-7_
  6
CONTINUOUS
 62
    7
 10
542.04192290434969
 20
1032.7499802048142
 11
607.17872413429052
 21
1032.7499802048142
  0
LINE
  8
_0-7_
  6
CONTINUOUS
 62
    7
 10
542.04192290434969
 20
1082.7500214447846
 11
607.17872413429052
 21
1082.7500214447846
  0
LINE
  8
_0-7_
  6
CONTINUOUS
 62
    7
 10
542.04192290434969
 20
1032.7499802048142
 11
542.04192290434969
 21
1082.7500214447846
  0
LINE
  8
_0-7_
  6
CONTINUOUS
 62
    7
 10
459.38458829312714
 20
1082.7500214447846
 11
607.17872413429052
 21
1082.7500214447846
  0
LINE
  8
_0-7_
  6
CONTINUOUS
 62
    7
 10
541.17000682933917
 20
1064.0335495407517
 11
516.97518632218646
 21
1154.3299082163219
  0
LINE
  8
_0-7_
  6
CONTINUOUS
 62
    7
 10
542.46652963999156
 20
973.9262348896749
 11
505.67331056337105
 21
1111.2403663429054
  0
LINE
  8
_0-7_
  6
CONTINUOUS
 62
    7
 10
516.97518632218646
 20
1154.3299082163219
 11
505.28922209868563
 21
1154.3299082163219
  0
LINE
  8
_0-7_
  6
CONTINUOUS
 62
    7
 10
505.67331056337105
 20
1111.2403663429054
 11
492.55095816947318
 21
1111.2403663429054
  0
LINE
  8
_0-7_
  6
CONTINUOUS
 62
    7
 10
459.38458829312714
 20
722.99769633525125
 11
459.38458829312714
 21
1082.7500214447846
  0
LINE
  8
_0-1_
  6
CONTINUOUS
 62
    7
 10
680.06595920872041
 20
794.51009389516469
 11
690.06599220069688
 21
794.51009389516469
  0
LINE
  8
_0-1_
  6
CONTINUOUS
 62
    7
 10
680.06595920872041
 20
794.51009389516469
 11
680.06595920872041
 21
779.51010626715583
  0
LINE
  8
_0-1_
  6
CONTINUOUS
 62
    7
 10
823.21571143897813
 20
743.99772850242823
 11
1021.1073798102302
 21
743.99772850242823
  0
LINE
  8
_0-1_
  6
CONTINUOUS
 62
    7
 10
990.06599220069688
 20
768.99774912241344
 11
971.65535591744083
 21
776.27520174593542
  0
LINE
  8
_0-1_
  6
CONTINUOUS
 62
    7
 10
690.06599220069688
 20
794.51009389516469
 11
690.06599220069688
 21
791.29665477855792
  0
LINE
  8
_0-1_
  6
CONTINUOUS
 62
    7
 10
940.06595096072647
 20
794.51009389516469
 11
950.06598395270271
 21
794.51009389516469
  0
LINE
  8
_0-1_
  6
CONTINUOUS
 62
    7
 10
940.06595096072647
 20
794.51009389516469
 11
940.06595096072647
 21
779.51010626715583
  0
LINE
  8
_0-1_
  6
CONTINUOUS
 62
    7
 10
1083.215703190984
 20
743.99772850242823
 11
1281.1074334221917
 21
743.99772850242823
  0
LINE
  8
_0-1_
  6
CONTINUOUS
 62
    7
 10
990.06599220069688
 20
768.99774912241344
 11
971.65535591744083
 21
776.27520174593542
  0
LINE
  8
_0-1_
  6
CONTINUOUS
 62
    7
 10
1250.0659839527027
 20
768.99774912241344
 11
1231.6553476694469
 21
776.27520174593542
  0
LINE
  8
_0-1_
  6
CONTINUOUS
 62
    7
 10
950.06598395270271
 20
794.51009389516469
 11
950.06598395270271
 21
791.29665477855792
  0
LINE
  8
_0-1_
  6
CONTINUOUS
 62
    7
 10
1200.0659427127323
 20
794.51009389516469
 11
1210.0659757047088
 21
794.51009389516469
  0
LINE
  8
_0-1_
  6
CONTINUOUS
 62
    7
 10
1200.0659427127323
 20
794.51009389516469
 11
1200.0659427127323
 21
779.51010626715583
  0
LINE
  8
_0-1_
  6
CONTINUOUS
 62
    7
 10
1343.2156949429898
 20
743.99772850242823
 11
1541.1073014542865
 21
743.99772850242823
  0
LINE
  8
_0-1_
  6
CONTINUOUS
 62
    7
 10
1510.0659757047085
 20
768.99774912241344
 11
1491.6553394214529
 21
776.27520174593542
  0
LINE
  8
_0-1_
  6
CONTINUOUS
 62
    7
 10
1210.0659757047088
 20
794.51009389516469
 11
1210.0659757047088
 21
791.29665477855792
  0
LINE
  8
_0-1_
  6
CONTINUOUS
 62
    7
 10
1510.0659757047085
 20
768.99774912241344
 11
1491.6553394214529
 21
776.27520174593542
  0
LINE
  8
_0-1_
  6
CONTINUOUS
 62
    7
 10
1460.0659344647383
 20
794.51009389516469
 11
1470.0659674567146
 21
794.51009389516469
  0
LINE
  8
_0-1_
  6
CONTINUOUS
 62
    7
 10
1460.0659344647383
 20
794.51009389516469
 11
1460.0659344647383
 21
779.51010626715583
  0
LINE
  8
_0-1_
  6
CONTINUOUS
 62
    7
 10
1470.0659674567146
 20
794.51009389516469
 11
1470.0659674567146
 21
791.29665477855792
  0
LINE
  8
_0-1_
  6
CONTINUOUS
 62
    7
 10
783.15198743665542
 20
743.99772850242823
 11
1698.0796607764992
 21
743.99772850242823
  0
LINE
  8
_0-1_
  6
CONTINUOUS
 62
    7
 10
851.3739920951225
 20
743.99772850242823
 11
794.65694942989876
 21
743.99772850242823
  0
LINE
  8
_0-5_
  6
CONTINUOUS
 62
    7
 10
1268.4091928842906
 20
762.78224635768584
 11
1208.5972966374579
 21
927.11396088471292
  0
ARC
  8
_0-1_
  6
CONTINUOUS
 62
    7
 10
919.27321150496198
 20
751.6199885187923
 40
72.894480421736432
 50
13.791900634765625
 51
161.69851684570312
  0
ARC
  8
_0-1_
  6
CONTINUOUS
 62
    7
 10
783.15198743665542
 20
911.37412818702501
 40
167.37638421960781
 50
231.9831237792969
 51
298.39506530761719
  0
ARC
  8
_0-1_
  6
CONTINUOUS
 62
    7
 10
919.27321150496198
 20
751.6199885187923
 40
57.894481194985879
 50
25.20538330078125
 51
167.5159912109375
  0
ARC
  8
_0-1_
  6
CONTINUOUS
 62
    7
 10
782.40948238888313
 20
914.51005677919147
 40
155.49068966427365
 50
234.57966613769534
 51
295.79264831542969
  0
ARC
  8
_0-1_
  6
CONTINUOUS
 62
    7
 10
699.87067145270271
 20
795.07524645006345
 40
10.507658687797754
 50
201.07586669921878
 51
223.8392028808594
  0
ARC
  8
_0-1_
  6
CONTINUOUS
 62
    7
 10
1179.2732032569679
 20
751.6199885187923
 40
72.894480421736432
 50
13.791900634765625
 51
161.69851684570312
  0
ARC
  8
_0-1_
  6
CONTINUOUS
 62
    7
 10
1043.1519791886612
 20
911.37412818702501
 40
167.37638421960781
 50
231.9831237792969
 51
298.39506530761719
  0
ARC
  8
_0-1_
  6
CONTINUOUS
 62
    7
 10
1179.2732032569679
 20
751.6199885187923
 40
57.894481194985879
 50
25.20538330078125
 51
167.5159912109375
  0
ARC
  8
_0-1_
  6
CONTINUOUS
 62
    7
 10
1042.4095360008446
 20
914.51005677919147
 40
155.49068966427365
 50
234.57966613769534
 51
295.79264831542969
  0
ARC
  8
_0-1_
  6
CONTINUOUS
 62
    7
 10
959.87066320470876
 20
795.07524645006345
 40
10.507658687797754
 50
201.07586669921878
 51
223.8392028808594
  0
ARC
  8
_0-1_
  6
CONTINUOUS
 62
    7
 10
1439.273195008974
 20
751.6199885187923
 40
72.894480421736432
 50
13.791900634765625
 51
161.69851684570312
  0
ARC
  8
_0-1_
  6
CONTINUOUS
 62
    7
 10
1303.1519709406671
 20
911.37412818702501
 40
167.37638421960781
 50
231.9831237792969
 51
298.39506530761719
  0
ARC
  8
_0-1_
  6
CONTINUOUS
 62
    7
 10
1439.273195008974
 20
751.6199885187923
 40
57.894481194985879
 50
25.20538330078125
 51
167.5159912109375
  0
ARC
  8
_0-1_
  6
CONTINUOUS
 62
    7
 10
1302.4095277528504
 20
914.51005677919147
 40
155.49068966427365
 50
234.57966613769534
 51
295.79264831542969
  0
ARC
  8
_0-1_
  6
CONTINUOUS
 62
    7
 10
1219.8706549567146
 20
795.07524645006345
 40
10.507658687797754
 50
201.07586669921878
 51
223.8392028808594
  0
ARC
  8
_0-1_
  6
CONTINUOUS
 62
    7
 10
1563.1519626926731
 20
911.37412818702501
 40
167.37638421960781
 50
231.9831237792969
 51
298.39506530761719
  0
ARC
  8
_0-1_
  6
CONTINUOUS
 62
    7
 10
1562.409395784945
 20
914.51005677919147
 40
155.49068966427365
 50
234.57966613769534
 51
295.79264831542969
  0
ARC
  8
_0-1_
  6
CONTINUOUS
 62
    7
 10
1479.8706467087206
 20
795.07524645006345
 40
10.507658687797754
 50
201.07586669921878
 51
223.8392028808594
  0
ARC
  8
_0-1_
  6
CONTINUOUS
 62
    7
 10
1699.2731867609796
 20
751.6199885187923
 40
57.894481194985879
 50
91.181274414062514
 51
167.5159912109375
  0
ARC
  8
_0-1_
  6
CONTINUOUS
 62
    7
 10
1699.2731867609796
 20
751.6199885187923
 40
72.894480421736432
 50
91.181274414062514
 51
161.69844055175781
  0
TEXT
  8
_1-0_
 62
    7
 10
717.5675778775601
 20
145.94594594594597
 40
12.5
 41
1
 50
0
  1
図名
  0
TEXT
  8
_1-0_
 62
    7
 10
717.5675778775601
 20
97.297297297297263
 40
12.5
 41
1
 50
0
  1
縮尺
  0
TEXT
  8
_1-0_
 62
    7
 10
1893.6189599939298
 20
138.65179113439609
 40
12.5
 41
1
 50
0
  1
ＮＯ
  0
TEXT
  8
_1-0_
 62
    7
 10
135.88908169720625
 20
125.3822120460304
 40
12.5
 41
1
 50
0
  1
木造
  0
TEXT
  8
_1-0_
 62
    7
 10
1927.7262301058386
 20
115.24704598091745
 40
12.5
 41
1
 50
0
  1
Ｓ
  0
TEXT
  8
_0-7_
 62
    7
 10
1991.8601164946688
 20
99.02956163561015
 40
12.5
 41
1
 50
0
  1
6
  0
TEXT
  8
_0-7_
 62
    7
 10
206.71764837728972
 20
101.30050246779987
 40
12.5
 41
1
 50
0
  1
壁際
  0
TEXT
  8
_0-7_
 62
    7
 10
257.32286556346992
 20
101.30050246779987
 40
12.5
 41
1
 50
0
  1
2
  0
TEXT
  8
_0-7_
 62
    7
 10
826.05656804265209
 20
93.963269929628126
 40
12.5
 41
1
 50
0
  1
1/5
  0
TEXT
  8
_0-7_
 62
    7
 10
537.61491517762886
 20
788.873291015625
 40
12.5
 41
1
 50
90
  1
150
  0
TEXT
  8
_0-7_
 62
    7
 10
723.01792454075166
 20
557.31873383393167
 40
12.5
 41
1
 50
0
  1
120
  0
TEXT
  8
_0-7_
 62
    7
 10
856.76979889740824
 20
473.0567210429424
 40
12.5
 41
1
 50
0
  1
捨谷
  0
TEXT
  8
_0-5_
 62
    7
 10
1390.1008399757179
 20
472.9002772150813
 40
12.5
 41
1
 50
0
  1
瓦桟　
  0
TEXT
  8
_0-5_
 62
    7
 10
1390.1008399757179
 20
412.90026484309016
 40
12.5
 41
1
 50
0
  1
野地板
  0
TEXT
  8
_0-5_
 62
    7
 10
1455.8422604122677
 20
412.90026484309016
 40
12.5
 41
1
 50
0
  1
ｔ＝12
  0
TEXT
  8
_0-7_
 62
    7
 10
1455.8422604122677
 20
392.90026071909318
 40
12.5
 41
1
 50
0
  1
60ｘ60
  0
TEXT
  8
_0-7_
 62
    7
 10
1616.5915411871833
 20
473.08545499234589
 40
12.5
 41
1
 50
0
  1
※　地域により瓦桟木の大きさは、異なります
  0
TEXT
  8
_0-7_
 62
    7
 10
737.21442351470137
 20
1112.4916695259712
 40
12.5
 41
1
 50
0
  1
外壁
  0
TEXT
  8
_0-7_
 62
    7
 10
538.75765413851354
 20
947.23230310388522
 40
12.5
 41
1
 50
90
  1
150
  0
TEXT
  8
_0-7_
 62
    7
 10
795.03579010834574
 20
964.04905576963688
 40
12.5
 41
1
 50
0
  1
雨押え板　15ｘ90
  0
TEXT
  8
_0-7_
 62
    7
 10
790.85251060692042
 20
1039.0960693359375
 40
12.5
 41
1
 50
0
  1
水切り鉄板
  0
TEXT
  8
_0-7_
 62
    7
 10
539.54191465635563
 20
1051.5000008247994
 40
12.5
 41
1
 50
90
  1
50
  0
TEXT
  8
_0-7_
 62
    7
 10
309.7720130714211
 20
1219.0637536951015
 40
15
 41
1
 50
0
  1
雨押え板上端より50mm以上とする
  0
TEXT
  8
_0-7_
 62
    7
 10
401.57577411548516
 20
1147.9999026736698
 40
12.5
 41
1
 50
0
  1
水切鉄板上端より
  0
TEXT
  8
_0-7_
 62
    7
 10
404.01033453039219
 20
1134.3663396062079
 40
12.5
 41
1
 50
0
  1
50ｍｍ以上
  0
TEXT
  8
_0-7_
 62
    7
 10
350.5833290718698
 20
1103.577031315984
 40
12.5
 41
1
 50
0
  1
水切り鉄板立上がり寸法
  0
TEXT
  8
_0-7_
 62
    7
 10
456.88461097511089
 20
877.87385889001803
 40
12.5
 41
1
 50
90
  1
300 以上
  0
POINT
  8
_0-7_
 62
    7
 10
542.04192290434969
 20
722.99769633525125
  0
POINT
  8
_0-7_
 62
    7
 10
790.71127401815886
 20
554.8187255859375
  0
POINT
  8
_0-7_
 62
    7
 10
674.0745750633447
 20
554.8187255859375
  0
POINT
  8
_0-7_
 62
    7
 10
459.38458829312714
 20
722.99769633525125
  0
POINT
  8
_0-7_
 62
    7
 10
542.04192290434969
 20
850.40489402977198
  0
POINT
  8
_0-7_
 62
    7
 10
542.04192290434969
 20
882.7500420647699
  0
POINT
  8
_0-7_
 62
    7
 10
542.04192290434969
 20
1032.7499802048142
  0
POINT
  8
_0-7_
 62
    7
 10
542.04192290434969
 20
1032.7499802048142
  0
POINT
  8
_0-7_
 62
    7
 10
542.04192290434969
 20
1082.7500214447846
  0
POINT
  8
_0-7_
 62
    7
 10
459.38458829312714
 20
1082.7500214447846
  0
TEXT
  8
_0-7_
 62
    7
 10
1451.8878215068096
 20
473.28810820708406
 40
12.5
 41
1
 50
0
  1
15×21　以上　（防腐処理）
  0
TEXT
  8
_0-7_
 62
    7
 10
1390.1008399757179
 20
452.90027309108427
 40
12.5
 41
1
 50
0
  1
縦桟
  0
TEXT
  8
_0-7_
 62
    7
 10
1390.1008605957031
 20
432.90026896708724
 40
12.5
 41
1
 50
0
  1
ルーフィング
  0
TEXT
  8
_0-5_
 62
    7
 10
1390.1008193557327
 20
392.90026071909324
 40
12.5
 41
1
 50
0
  1
たる木
  0
TEXT
  8
_0-7_
 62
    7
 10
307.83889770507813
 20
1247.2992355759079
 40
15
 41
1
 50
0
  1
ルーフィング立上げ長さは、300ｍｍ以上かつ
  0
TEXT
  8
_0-7_
 62
    7
 10
305.08055071829801
 20
856.06218559749277
 40
12.5
 41
1
 50
0
  1
ルーフィング立上がり寸法
  0
TEXT
  8
_0-7_
 62
    7
 10
821.21865664823736
 20
918.18992057054106
 40
12.5
 41
1
 50
0
  1
葺き土
  0
ARC
  8
_0-6_
  6
CONTINUOUS
 62
    7
 10
883.95036254970012
 20
829.92088815855095
 40
167.34828139278565
 50
176.58960099026089
 51
201.426656123534
  0
LINE
  8
ADD_LINE
  6
DOT
 62
    4
 10
674.0745750633447
 20
788.24721284376938
 11
680.06595920872041
 21
786.87214107269938
  0
LINE
  8
ADD_LINE
  6
DOT
 62
    4
 10
682.93127087224002
 20
852.30200018570872
 11
680.48813784795334
 21
848.05866388036816
  0
SOLID
  8
_0-3_
  6
CONTINUOUS
 62
    8
 10
716.89844700488038
 20
839.87602743057596
 11
682.93127087224002
 21
852.30200018570872
 12
680.48813784795334
 22
848.05866388036816
 13
680.48813784795334
 23
848.05866388036816
  0
SOLID
  8
_0-3_
  6
CONTINUOUS
 62
    8
 10
680.48813784795334
 20
848.05866388036816
 11
674.0745750633447
 21
850.40489402977198
 12
674.0745750633447
 22
788.24721284376938
 13
674.0745750633447
 23
788.24721284376938
  0
SOLID
  8
_0-3_
  6
CONTINUOUS
 62
    8
 10
674.0745750633447
 20
788.24721284376938
 11
680.06595920872041
 21
786.87214107269938
 12
680.06595920872041
 22
794.51009389516469
 13
680.06595920872041
 23
794.51009389516469
  0
SOLID
  8
_0-3_
  6
CONTINUOUS
 62
    8
 10
690.06599220069688
 20
794.51009389516469
 11
690.06599220069688
 21
791.29665477855792
 12
716.8131838585557
 22
839.40884002094685
 13
716.8131838585557
 23
839.40884002094685
  0
SOLID
  8
_0-3_
  6
CONTINUOUS
 62
    8
 10
690.06599220069688
 20
794.51009389516469
 11
716.8131838585557
 21
839.40884002094685
 12
716.89844700488038
 22
839.87602743057596
 13
716.89844700488038
 23
839.87602743057596
  0
SOLID
  8
_0-3_
  6
CONTINUOUS
 62
    8
 10
690.06599220069688
 20
794.51009389516469
 11
716.89844700488038
 21
839.87602743057596
 12
680.48813784795334
 22
848.05866388036816
 13
680.48813784795334
 23
848.05866388036816
  0
SOLID
  8
_0-3_
  6
CONTINUOUS
 62
    8
 10
680.48813784795334
 20
848.05866388036816
 11
674.0745750633447
 21
788.24721284376938
 12
680.06595920872041
 22
794.51009389516469
 13
680.06595920872041
 23
794.51009389516469
  0
SOLID
  8
_0-3_
  6
CONTINUOUS
 62
    8
 10
680.48813784795334
 20
848.05866388036816
 11
680.06595920872041
 21
794.51009389516469
 12
690.06599220069688
 22
794.51009389516469
 13
690.06599220069688
 23
794.51009389516469
  0
SOLID
  8
_0-3_
  6
CONTINUOUS
 62
    8
 10
690.06599220069688
 20
791.29665477855792
 11
690.65190181199137
 21
790.02952365603107
 12
691.48935522955958
 22
788.7222792969003
 13
691.48935522955958
 23
788.7222792969003
  0
SOLID
  8
_0-3_
  6
CONTINUOUS
 62
    8
 10
690.06599220069688
 20
791.29665477855792
 11
691.48935522955958
 21
788.7222792969003
 12
692.06127463667929
 22
788.06865711733485
 13
692.06127463667929
 23
788.06865711733485
  0
SOLID
  8
_0-3_
  6
CONTINUOUS
 62
    8
 10
690.06599220069688
 20
791.29665477855792
 11
692.06127463667929
 21
788.06865711733485
 12
692.29167824811611
 22
787.79724784056111
 13
692.29167824811611
 23
787.79724784056111
  0
SOLID
  8
_0-3_
  6
CONTINUOUS
 62
    8
 10
690.06599220069688
 20
791.29665477855792
 11
692.29167824811611
 21
787.79724784056111
 12
694.32852657204671
 22
786.33247320286409
 13
694.32852657204671
 23
786.33247320286409
  0
SOLID
  8
_0-3_
  6
CONTINUOUS
 62
    8
 10
690.06599220069688
 20
791.29665477855792
 11
694.32852657204671
 21
786.33247320286409
 12
697.65791454920816
 22
784.1877754261651
 13
697.65791454920816
 23
784.1877754261651
  0
SOLID
  8
_0-3_
  6
CONTINUOUS
 62
    8
 10
690.06599220069688
 20
791.29665477855792
 11
697.65791454920816
 21
784.1877754261651
 12
700.82389698147813
 22
782.16563180813455
 13
700.82389698147813
 23
782.16563180813455
  0
SOLID
  8
_0-3_
  6
CONTINUOUS
 62
    8
 10
690.06599220069688
 20
791.29665477855792
 11
700.82389698147813
 21
782.16563180813455
 12
704.68435297953647
 22
779.8779541796556
 13
704.68435297953647
 23
779.8779541796556
  0
SOLID
  8
_0-3_
  6
CONTINUOUS
 62
    8
 10
690.06599220069688
 20
791.29665477855792
 11
704.68435297953647
 21
779.8779541796556
 12
708.95393195581607
 22
777.41062143435965
 13
708.95393195581607
 23
777.41062143435965
  0
SOLID
  8
_0-3_
  6
CONTINUOUS
 62
    8
 10
690.06599220069688
 20
791.29665477855792
 11
708.95393195581607
 21
777.41062143435965
 12
713.47218841712106
 22
775.1695662295524
 13
713.47218841712106
 23
775.1695662295524
  0
SOLID
  8
_0-3_
  6
CONTINUOUS
 62
    8
 10
690.06599220069688
 20
791.29665477855792
 11
713.47218841712106
 21
775.1695662295524
 12
717.15908568954603
 22
773.39840969672071
 13
717.15908568954603
 23
773.39840969672071
  0
SOLID
  8
_0-3_
  6
CONTINUOUS
 62
    8
 10
690.06599220069688
 20
791.29665477855792
 11
717.15908568954603
 21
773.39840969672071
 12
722.65328554649318
 22
770.97662423346128
 13
722.65328554649318
 23
770.97662423346128
  0
SOLID
  8
_0-3_
  6
CONTINUOUS
 62
    8
 10
690.06599220069688
 20
791.29665477855792
 11
722.65328554649318
 21
770.97662423346128
 12
728.16819682336632
 22
768.78690311968717
 13
728.16819682336632
 23
768.78690311968717
  0
SOLID
  8
_0-3_
  6
CONTINUOUS
 62
    8
 10
690.06599220069688
 20
791.29665477855792
 11
728.16819682336632
 21
768.78690311968717
 12
725.50882363003791
 22
775.92863331505157
 13
725.50882363003791
 23
775.92863331505157
  0
SOLID
  8
_0-3_
  6
CONTINUOUS
 62
    8
 10
690.06599220069688
 20
791.29665477855792
 11
725.50882363003791
 21
775.92863331505157
 12
723.66537499382548
 22
781.7120015855221
 13
723.66537499382548
 23
781.7120015855221
  0
SOLID
  8
_0-3_
  6
CONTINUOUS
 62
    8
 10
690.06599220069688
 20
791.29665477855792
 11
723.66537499382548
 21
781.7120015855221
 12
721.3325811716154
 22
790.38841424154498
 13
721.3325811716154
 23
790.38841424154498
  0
SOLID
  8
_0-3_
  6
CONTINUOUS
 62
    8
 10
690.06599220069688
 20
791.29665477855792
 11
721.3325811716154
 21
790.38841424154498
 12
720.05146412406634
 22
796.07532406237283
 13
720.05146412406634
 23
796.07532406237283
  0
SOLID
  8
_0-3_
  6
CONTINUOUS
 62
    8
 10
690.06599220069688
 20
791.29665477855792
 11
720.05146412406634
 21
796.07532406237283
 12
719.20780167811927
 22
800.54361035016598
 13
719.20780167811927
 23
800.54361035016598
  0
SOLID
  8
_0-3_
  6
CONTINUOUS
 62
    8
 10
690.06599220069688
 20
791.29665477855792
 11
719.20780167811927
 21
800.54361035016598
 12
718.42663274668689
 22
805.26187069601758
 13
718.42663274668689
 23
805.26187069601758
  0
SOLID
  8
_0-3_
  6
CONTINUOUS
 62
    8
 10
690.06599220069688
 20
791.29665477855792
 11
718.42663274668689
 21
805.26187069601758
 12
717.92668463057021
 22
808.82400102334941
 13
717.92668463057021
 23
808.82400102334941
  0
SOLID
  8
_0-3_
  6
CONTINUOUS
 62
    8
 10
690.06599220069688
 20
791.29665477855792
 11
717.92668463057021
 21
808.82400102334941
 12
717.58297030074004
 22
812.10491053536543
 13
717.58297030074004
 23
812.10491053536543
  0
SOLID
  8
_0-3_
  6
CONTINUOUS
 62
    8
 10
690.06599220069688
 20
791.29665477855792
 11
717.58297030074004
 21
812.10491053536543
 12
717.2432040756114
 22
815.2863195412657
 13
717.2432040756114
 23
815.2863195412657
  0
SOLID
  8
_0-3_
  6
CONTINUOUS
 62
    8
 10
690.06599220069688
 20
791.29665477855792
 11
717.2432040756114
 21
815.2863195412657
 12
716.92678839833673
 22
819.54163876260168
 13
716.92678839833673
 23
819.54163876260168
  0
SOLID
  8
_0-3_
  6
CONTINUOUS
 62
    8
 10
690.06599220069688
 20
791.29665477855792
 11
716.92678839833673
 21
819.54163876260168
 12
716.67681434027827
 22
823.72870423507936
 13
716.67681434027827
 23
823.72870423507936
  0
SOLID
  8
_0-3_
  6
CONTINUOUS
 62
    8
 10
690.06599220069688
 20
791.29665477855792
 11
716.67681434027827
 21
823.72870423507936
 12
716.61432082576368
 22
827.97826322207152
 13
716.61432082576368
 23
827.97826322207152
  0
SOLID
  8
_0-3_
  6
CONTINUOUS
 62
    8
 10
690.06599220069688
 20
791.29665477855792
 11
716.61432082576368
 21
827.97826322207152
 12
716.64556758302092
 22
832.63403005340842
 13
716.64556758302092
 23
832.63403005340842
  0
SOLID
  8
_0-3_
  6
CONTINUOUS
 62
    8
 10
690.06599220069688
 20
791.29665477855792
 11
716.64556758302092
 21
832.63403005340842
 12
716.70806109753562
 22
836.28990065251219
 13
716.70806109753562
 23
836.28990065251219
  0
SOLID
  8
_0-3_
  6
CONTINUOUS
 62
    8
 10
716.70806109753562
 20
836.28990065251219
 11
716.89844700488084
 21
839.87602743057596
 12
716.8131838585557
 22
839.40884002094685
 13
716.8131838585557
 23
839.40884002094685
  0
SOLID
  8
_0-3_
  6
CONTINUOUS
 62
    8
 10
716.70806109753562
 20
836.28990065251219
 11
716.8131838585557
 21
839.40884002094685
 12
690.06599220069688
 22
791.29665477855792
 13
690.06599220069688
 23
791.29665477855792
  0
TEXT
  8
_1-0_
 62
    7
 10
81.081079792332105
 20
145.94594594594597
 40
12.5
 41
1
 50
0
  1
Ｓ形
  0
TEXT
  8
_0-5_
 62
    7
 10
1127.8733309154736
 20
920.14049656562406
 40
12.5
 41
1
 50
0
  1
Ｓ形　桟瓦
  0
ENDSEC
  0
EOF
